Song name
# A B C D E F G H I J K L M N O P Q R S T U V W X Y Z

Body Count - Bowels Of The Devil tab

Help us improve GuitareTab! Take a short survey!
-------------------------------------------------------------------------------
			  BOWELS OF THE DEVIL - Body Count
-------------------------------------------------------------------------------
Tabbed by: Superduck
Email: Amayowski@gmail.com

Tuning: Eb

Intro: (x4 i think)

eb|---------------------------------------------------------------------------|
Bb|---------------------------------------------------------------------------|
Gb|-9-------------------------------------------------------------------------|
Db|-9-9/10--------------------------------------------------------------------|
Ab|-7-9/10--------------------------------------------------------------------|
Eb|---7/8--2-3-2-3-0----------------------------------------------------------|

Verse

eb|---------------------------------------------------------------------------|
Bb|---------------------------------------------------------------------------|
Gb|-9---5---------------------------------------------------------------------|
Db|-9-9-5---------------------------------------------------------------------|
Ab|-7-9-3---------------------------------------------------------------------|
Eb|0--7--2-3-2-3--------------------------------------------------------------|

Chorus

eb|---------------------------------------------------------------------------|
Bb|---------------------------------------------------------------------------|
Gb|--7-5-5-7-7----------------------------------------------------------------|
Db|--7-5-5-5-7-5-5-5----------------------------------------------------------|
Ab|--5-3-3-5-5-5-5-5----------------------------------------------------------|
Eb|-0-------0--3-3-3----------------------------------------------------------|

Chorus pt 2 (lead guitar riff) (x2)

eb|---------------------------------------------------------------------------|
Bb|-8-8-8-8-10-8--------------------------------------------------------------|
Gb|--9-----------9------------------------------------------------------------|
Db|---------------------------------------------------------------------------|
Ab|---------------------------------------------------------------------------|
Eb|---------------------------------------------------------------------------|

Chorus pt 2 (rhythm) x

eb|---------------------------------------------------------------------------|
Bb|---------------------------------------------------------------------------|
Gb|---------------------------------------------------------------------------|
Db|-5-5-5-5-5-2-2-2-2-2-5-5-5-7\5-2-2-2-2-2-----------------------------------|
Ab|-5-5-5-5-5-2-2-2-2-2-5-5-5-7\5-2-2-2-2-2-----------------------------------|
Eb|-3-3-3-3-3-0-0-0-0-0-3-3-3-5\3-0-0-0-0-0-----------------------------------|
Related for Bowels Of The Devil tab