Song name
# A B C D E F G H I J K L M N O P Q R S T U V W X Y Z

Body - Fly Away tab

Help us improve GuitareTab! Take a short survey!
     This is the first song off the first album "FLY AWAY" The band is local 
and has many songs that are brand new and wish to be listed on ultimate-Guitar
                                sight!!Thanx 


               easy tab have fun!Please rate!

Tuning:standard            (use up and down picking to get tone!)
Tabbed by:BODY

  main verse:
                                                                      5x
 ----------------------------------------------------------------------------
 ----------------------------------------------------------------------------
 ----------------------------------------------------------------------------
 --7----777------------------------------------------------------------------
 --9----999-----7----7777777----5----555----3----3333333---------------------
 ---------------9----9999999----7----777----5----5555555---------------------


 ----------------------------------------------------------------------------
 ----------------------------------------------------------------------------
 ----------------------------------------------------------------------------
 ------------------------------------2x------Then back to main verse---------
 ---3333----5--5555555----7--7777-------------------------(then start lyrics)
 ---5555----7--7777777----9--9999--------------------------------------------
   
      FLY AWAY.......         THINGS I DIDNT MEAN TO SAY..................

       use main verse until solo in which I will post real soon!THANX
Related for Fly Away tab