Song name
# A B C D E F G H I J K L M N O P Q R S T U V W X Y Z

Body - Loose As A Goose tab

 This a song from their album "fly away" which is not to come out in a while.
This band(B.O.D.Y)Is American and is a popular band throughout Kentucky and
Tennessee and loves metal music. (has never been on the ultmate guitar site
for tabs and I dont know why),but heres a song to put in there.Rock On.THANX!

  No Distortion(clean)


This is played on top 4 strings.
                                                       3x
-------------------------------------------------------------------------------
----------------------3--333-5-5555555-----------------------------------------
-5--555~~~3--3333333--5--555-7-7777777-----------------------------------------
-7--777~~~5--5555555-----------------------------------------------------------

  Much Distortion
-------------------------------------------------------------------------------
-------------------------------------------------------------------------------
--5555-5555--5555-5555-----(Now,do intro through lyrics with distortion)-------
--7777-7777--7777-7777---------------------------------------------------------
 
                Solo:
---------^---------123---------------------------------------------------------
--10-12-11---------------------------------------------------------------------
------------12~~1-------3x-----------------------------------------------------
-------------------------------------------------------------------------------
-------------------------------------------------------------------------------
-------------------------------------------------------------------------------
Tap to rate this tab
 
# A B C D E F G H I J K L M N O P Q R S T U V W X Y Z