Song name
# A B C D E F G H I J K L M N O P Q R S T U V W X Y Z

Bodyjar - Not The Same tab

Gtr I (E A D G B E) - 'Distortion Guitar'
Gtr II (E A D G B E) - 'Distortion Guitar'

   Intro
    Moderate Rock Q=110
    E5                                 C5
   4/4
    Gtr I
    E E S S S S  S  E   S +S  E.       E E S S S S  S  E   S +S  E.
||-----------------------------------|----------------------------------|
||o----------------------------------|----------------------------------|
||--9-9-9-9-9-9-13-11---9-(9)-8------|-9-9-9-9-9-9-13-11---9-(9)-8------|
||--x-x-x-x-x-x--x--x---x-(x)-x------|-x-x-x-x-x-x--x--x---x-(x)-x------|
||o-7-7-7-7-7-7-11--9---7-(7)-6------|-7-7-7-7-7-7-11--9---7-(7)-6------|
||-----------------------------------|----------------------------------|
|
|   Gtr II
|   E E S S E    S  S E    S  S  S S   E E S S E    S  S E    S  S  S S
||-----------------------------------|----------------------------------|
||o----------------------------------|----------------------------------|
||--9-9-9-9-9----9--9-9----9--9--9-9-|-5-5-5-5-5----5--5-5----5--5--5-5-|
||--9-9-9-9-9----9--9-9----9--9--9-9-|-5-5-5-5-5----5--5-5----5--5--5-5-|
||o-7-7-7-7-7----7--7-7----7--7--7-7-|-3-3-3-3-3----3--3-3----3--3--3-3-|
||-----------------------------------|----------------------------------|


  E E S S S S  S  E   S +S  E.       E E S S S S  S  E   S +S  E.
|----------------------------------|-----------------------------------||
|----------------------------------|----------------------------------o||
|-9-9-9-9-9-9-13-11---9-(9)-8------|-9-9-9-9-9-9-13-11---9-(9)-8-------||
|-x-x-x-x-x-x--x--x---x-(x)-x------|-x-x-x-x-x-x--x--x---x-(x)-x-------||
|-7-7-7-7-7-7-11--9---7-(7)-6------|-7-7-7-7-7-7-11--9---7-(7)-6------o||
|----------------------------------|-----------------------------------||
|
| E E S S E    S  S E    S  S  S S   E E S S E    S  S E    S  S  S S
|----------------------------------|-----------------------------------||
|----------------------------------|----------------------------------o||
|-6-6-6-6-6----6--6-6----6--6--6-6-|-----------------------------------||
|-6-6-6-6-6----6--6-6----6--6--6-6-|-7-7-7-7-7----7--7-7----7--7--7-7--||
|-4-4-4-4-4----4--4-4----4--4--4-4-|-7-7-7-7-7----7--7-7----7--7--7-7-o||
|----------------------------------|-5-5-5-5-5----5--5-5----5--5--5-5--||


 Verse
  $
  E5                                G#5
                 >
  H             +H                  W
|---------------------------------|--------------------------------|
|---------------------------------|--------------------------------|
|-9-------------(9)---------------|--------------------------------|
|-x-------------(x)---------------|--------------------------------|
|-7-------------(7)---------------|--------------------------------|
|---------------------------------|--------------------------------|
|
| E S S S S S S  S  S S S S S S S   E S S S S S S S S S S S S S S
|---------------------------------|--------------------------------|
|---------------------------------|--------------------------------|
|-9-9-9-9-9-9-9--9--9-9-9-9-9-9-9-|--------------------------------|
|-9-9-9-9-9-9-9--9--9-9-9-9-9-9-9-|-6-6-6-6-6-6-6-6-6-6-6-6-6-6-6--|
|-7-7-7-7-7-7-7--7--7-7-7-7-7-7-7-|-6-6-6-6-6-6-6-6-6-6-6-6-6-6-6--|
|---------------------------------|-4-4-4-4-4-4-4-4-4-4-4-4-4-4-4--|


  C#5                             A5
  Gtr II
  E S S S S S S S S S S S S S S   E S S S S S S S S S S S S S S
|-------------------------------|--------------------------------|
|-------------------------------|--------------------------------|
|-6-6-6-6-6-6-6-6-6-6-6-6-6-6-6-|--------------------------------|
|-6-6-6-6-6-6-6-6-6-6-6-6-6-6-6-|-7-7-7-7-7-7-7-7-7-7-7-7-7-7-7--|
|-4-4-4-4-4-4-4-4-4-4-4-4-4-4-4-|-7-7-7-7-7-7-7-7-7-7-7-7-7-7-7--|
|-------------------------------|-5-5-5-5-5-5-5-5-5-5-5-5-5-5-5--|


  E5                              G#5
  E S S S S S S S S S S S S S S   E S S S S S S S S S S S S S S
|-------------------------------|--------------------------------|
|-------------------------------|--------------------------------|
|-9-9-9-9-9-9-9-9-9-9-9-9-9-9-9-|--------------------------------|
|-9-9-9-9-9-9-9-9-9-9-9-9-9-9-9-|-6-6-6-6-6-6-6-6-6-6-6-6-6-6-6--|
|-7-7-7-7-7-7-7-7-7-7-7-7-7-7-7-|-6-6-6-6-6-6-6-6-6-6-6-6-6-6-6--|
|-------------------------------|-4-4-4-4-4-4-4-4-4-4-4-4-4-4-4--|


  C#5                             A5
  E S S S S S S S S S S S S S S   E S S S S S S S S S S S S S S
|-------------------------------|--------------------------------||
|-------------------------------|--------------------------------||
|-6-6-6-6-6-6-6-6-6-6-6-6-6-6-6-|--------------------------------||
|-6-6-6-6-6-6-6-6-6-6-6-6-6-6-6-|-7-7-7-7-7-7-7-7-7-7-7-7-7-7-7--||
|-4-4-4-4-4-4-4-4-4-4-4-4-4-4-4-|-7-7-7-7-7-7-7-7-7-7-7-7-7-7-7--||
|-------------------------------|-5-5-5-5-5-5-5-5-5-5-5-5-5-5-5--||


   Pre-Chorus
    $$
    G#sus4/C#       G#/C
    Gtr I
    W
||----------------------------------|
||o---------------------------------|
||--9-------------------------------|
||--x-------------------------------|
||o-7-------------------------------|
||----------------------------------|
|
|   Gtr II
|   PM----------------------------|
|   S S S S S S S S S S S S S S S S
||----------------------------------|
||o---------------------------------|
||--6-6-6-6-6-6-6-6-5-5-5-5-5-5-5-5-|
||--6-6-6-6-6-6-6-6-6-6-6-6-6-6-6-6-|
||o-4-4-4-4-4-4-4-4-3-3-3-3-3-3-3-3-|
||----------------------------------|


 1.                           2.
                                           To Coda
                                           To Coda
  F#5                         F#5                 B5
  E E S S E S S E S S S S     E E S S E S S E S S E
|--------------------------||------------------------||
|-------------------------o||------------------------||
|--------------------------||---------------------4--||
|-4-4-4-4-4-4-4-4-4-4-4-4--||-4-4-4-4-4-4-4-4-4-4-4--||
|-4-4-4-4-4-4-4-4-4-4-4-4-o||-4-4-4-4-4-4-4-4-4-4-2--||
|-2-2-2-2-2-2-2-2-2-2-2-2--||-2-2-2-2-2-2-2-2-2-2----||
|
| E E S S E S S E S S S S     E E S S E S S E S S E
|--------------------------||------------------------||
|-------------------------o||------------------------||
|--------------------------||---------------------4--||
|-4-4-4-4-4-4-4-4-4-4-4-4--||-4-4-4-4-4-4-4-4-4-4-4--||
|-4-4-4-4-4-4-4-4-4-4-4-4-o||-4-4-4-4-4-4-4-4-4-4-2--||
|-2-2-2-2-2-2-2-2-2-2-2-2--||-2-2-2-2-2-2-2-2-2-2----||


   1st Chorus
    A5        E5                  C#5       A5
    Gtrs I, II
    E E S S S S +S  S E S S S S   E E S S S S +S  S E S S S S
||------------------------------|-----------------------------|
||o-----------------------------|-----------------------------|
||--2-2-2-2-2-9-(9)-9-9-9-9-9-9-|-6-6-6-6-6-------------------|
||--2-2-2-2-2-9-(9)-9-9-9-9-9-9-|-6-6-6-6-6-7-(7)-7-7-7-7-7-7-|
||o-0-0-0-0-0-7-(7)-7-7-7-7-7-7-|-4-4-4-4-4-7-(7)-7-7-7-7-7-7-|
||------------------------------|-----------5-(5)-5-5-5-5-5-5-|


  1.
  A5        E5                  F#5                         B5
                                PM------------------------|
  E E S S S S +S  S E S S S S   S S S S S S S S S S S S S S E
|-----------------------------|--------------------------------||
|-----------------------------|-------------------------------o||
|-----------9-(9)-9-9-9-9-9-9-|-----------------------------4--||
|-7-7-7-7-7-9-(9)-9-9-9-9-9-9-|-4-4-4-4-4-4-4-4-4-4-4-4-4-4-4--||
|-7-7-7-7-7-7-(7)-7-7-7-7-7-7-|-4-4-4-4-4-4-4-4-4-4-4-4-4-4-2-o||
|-5-5-5-5-5-------------------|-2-2-2-2-2-2-2-2-2-2-2-2-2-2----||


  2.
  A5        E5                  F#5
                                PM----------------------------|
  E E S S S S +S  S E S S S S   S S S S S S S S S S S S S S S S
|-----------------------------|---------------------------------||
|-----------------------------|---------------------------------||
|-----------9-(9)-9-9-9-9-9-9-|---------------------------------||
|-7-7-7-7-7-9-(9)-9-9-9-9-9-9-|-4-4-4-4-4-4-4-4-4-4-4-4-4-4-4-4-||
|-7-7-7-7-7-7-(7)-7-7-7-7-7-7-|-4-4-4-4-4-4-4-4-4-4-4-4-4-4-4-4-||
|-5-5-5-5-5-------------------|-2-2-2-2-2-2-2-2-2-2-2-2-2-2-2-2-||


 Pre-Verse
  E5                                 C5
  Gtr I
  E E S S S S  S  E   S +S  E.       E E S S S S  S  E   S +S  E.
|----------------------------------|----------------------------------|
|----------------------------------|----------------------------------|
|-9-9-9-9-9-9-13-11---9-(9)-8------|-9-9-9-9-9-9-13-11---9-(9)-8------|
|-x-x-x-x-x-x--x--x---x-(x)-x------|-x-x-x-x-x-x--x--x---x-(x)-x------|
|-7-7-7-7-7-7-11--9---7-(7)-6------|-7-7-7-7-7-7-11--9---7-(7)-6------|
|----------------------------------|----------------------------------|
|
| Gtr II
| E E S S E    S  S E    S  S  S S   E E S S E    S  S E    S  S  S S
|----------------------------------|----------------------------------|
|----------------------------------|----------------------------------|
|-9-9-9-9-9----9--9-9----9--9--9-9-|-5-5-5-5-5----5--5-5----5--5--5-5-|
|-9-9-9-9-9----9--9-9----9--9--9-9-|-5-5-5-5-5----5--5-5----5--5--5-5-|
|-7-7-7-7-7----7--7-7----7--7--7-7-|-3-3-3-3-3----3--3-3----3--3--3-3-|
|----------------------------------|----------------------------------|


                                                        D.S. al Coda
  C#5                                A5
  E E S S S S  S  E   S +S  E.       E E S S S S  S  E   S +S  E.
|----------------------------------|----------------------------------||
|----------------------------------|----------------------------------||
|-9-9-9-9-9-9-13-11---9-(9)-8------|-9-9-9-9-9-9-13-11---9-(9)-8------||
|-x-x-x-x-x-x--x--x---x-(x)-x------|-x-x-x-x-x-x--x--x---x-(x)-x------||
|-7-7-7-7-7-7-11--9---7-(7)-6------|-7-7-7-7-7-7-11--9---7-(7)-6------||
|----------------------------------|----------------------------------||
|
| E E S S E    S  S E    S  S  S S   E E S S E    S  S E    S  S  S S
|----------------------------------|----------------------------------||
|----------------------------------|----------------------------------||
|-6-6-6-6-6----6--6-6----6--6--6-6-|----------------------------------||
|-6-6-6-6-6----6--6-6----6--6--6-6-|-7-7-7-7-7----7--7-7----7--7--7-7-||
|-4-4-4-4-4----4--4-4----4--4--4-4-|-7-7-7-7-7----7--7-7----7--7--7-7-||
|----------------------------------|-5-5-5-5-5----5--5-5----5--5--5-5-||


   2nd Chorus
    &
    A5        E5                  C#5       A5
    E E S S S S +S  S E S S S S   E E S S S S +S  S E S S S S
||------------------------------|-----------------------------|
||o-----------------------------|-----------------------------|
||--2-2-2-2-2-9-(9)-9-9-9-9-9-9-|-6-6-6-6-6-------------------|
||--2-2-2-2-2-9-(9)-9-9-9-9-9-9-|-6-6-6-6-6-7-(7)-7-7-7-7-7-7-|
||o-0-0-0-0-0-7-(7)-7-7-7-7-7-7-|-4-4-4-4-4-7-(7)-7-7-7-7-7-7-|
||------------------------------|-----------5-(5)-5-5-5-5-5-5-|


  1.
  A5        E5                  F#5                         B5
                                PM------------------------|
  E E S S S S +S  S E S S S S   S S S S S S S S S S S S S S E
|-----------------------------|--------------------------------||
|-----------------------------|-------------------------------o||
|-----------9-(9)-9-9-9-9-9-9-|-----------------------------4--||
|-7-7-7-7-7-9-(9)-9-9-9-9-9-9-|-4-4-4-4-4-4-4-4-4-4-4-4-4-4-4--||
|-7-7-7-7-7-7-(7)-7-7-7-7-7-7-|-4-4-4-4-4-4-4-4-4-4-4-4-4-4-2-o||
|-5-5-5-5-5-------------------|-2-2-2-2-2-2-2-2-2-2-2-2-2-2----||


  2.
  A5        E5                  F#5
                                PM-------------------------------
  E E S S S S +S  S E S S S S   S S S S S S S S S S S S S S S S
|-----------------------------|---------------------------------|
|-----------------------------|---------------------------------|
|-----------9-(9)-9-9-9-9-9-9-|---------------------------------|
|-7-7-7-7-7-9-(9)-9-9-9-9-9-9-|-4-4-4-4-4-4-4-4-4-4-4-4-4-4-4-4-|
|-7-7-7-7-7-7-(7)-7-7-7-7-7-7-|-4-4-4-4-4-4-4-4-4-4-4-4-4-4-4-4-|
|-5-5-5-5-5-------------------|-2-2-2-2-2-2-2-2-2-2-2-2-2-2-2-2-|


  F#5
 -------------------------------|
  S S S S S S S S S S S S S S S S
|-----------------------------------||
|-----------------------------------||
|-----------------------------------||
|-4-4-4-4-4-4-4-4-4-4-4-4-4-4-4-4---||
|-4-4-4-4-4-4-4-4-4-4-4-4-4-4-4-4---||
|-2-2-2-2-2-2-2-2-2-2-2-2-2-2-2-2---||


 Guitar Solo
  E5                G#5
  Gtr I
   ~~
   W                E S S S E. E S S S E.
|-----------------|---------------------------|
|-----------------|---------------------------|
|-13--------------|-4-4-4-6-9--4-4-4-6-9------|
|-----------------|---------------------------|
|-----------------|---------------------------|
|-----------------|---------------------------|
|
| Gtr II
|             PM|                         PM|
|  Q  Q  Q  E S S   Q     Q    Q     E    S S
|-----------------|---------------------------|
|-----------------|---------------------------|
|--9--9--9--9-9-9-|---------------------------|
|--9--9--9--9-9-9-|-6-----6----6-----6----6-6-|
|--7--7--7--7-7-7-|-6-----6----6-----6----6-6-|
|-----------------|-4-----4----4-----4----4-4-|


  C#5               A5
   ~~
   W                E S S S E. E S S S E.
|-----------------|---------------------------|
|-----------------|---------------------------|
|-13--------------|-4-4-4-6-9--4-4-4-6-9------|
|-----------------|---------------------------|
|-----------------|---------------------------|
|-----------------|---------------------------|
|
|             PM|                         PM|
|  Q  Q  Q  E S S   Q     Q    Q     E    S S
|-----------------|---------------------------|
|-----------------|---------------------------|
|--6--6--6--6-6-6-|---------------------------|
|--6--6--6--6-6-6-|-7-----7----7-----7----7-7-|
|--4--4--4--4-4-4-|-7-----7----7-----7----7-7-|
|-----------------|-5-----5----5-----5----5-5-|


  E5                G#5
   ~~
   W                E S S S E. E S S S E.
|-----------------|---------------------------|
|-----------------|---------------------------|
|-13--------------|-4-4-4-6-9--4-4-4-6-9------|
|-----------------|---------------------------|
|-----------------|---------------------------|
|-----------------|---------------------------|
|
|             PM|                         PM|
|  Q  Q  Q  E S S   Q     Q    Q     E    S S
|-----------------|---------------------------|
|-----------------|---------------------------|
|--9--9--9--9-9-9-|---------------------------|
|--9--9--9--9-9-9-|-6-----6----6-----6----6-6-|
|--7--7--7--7-7-7-|-6-----6----6-----6----6-6-|
|-----------------|-4-----4----4-----4----4-4-|


                                        D.S.S. al Dbl. Coda
  C#5               A5                      A5
   ~~
   W                E S S S E. E S S S E.   S S S S +S  E. H
|-----------------|-----------------------|---------------------||
|-----------------|-----------------------|---------------------||
|-13--------------|-4-4-4-6-9--4-4-4-6-9--|-9-9-9-6-(6)-4--6----||
|-----------------|-----------------------|---------------------||
|-----------------|-----------------------|---------------------||
|-----------------|-----------------------|---------------------||
|
|             PM|
|  Q  Q  Q  E S S   H          H            H              H
|-----------------|-----------------------|---------------------||
|-----------------|-----------------------|---------------------||
|--6--6--6--6-6-6-|-----------------------|---------------------||
|--6--6--6--6-6-6-|-7----------7----------|-7--------------7----||
|--4--4--4--4-4-4-|-7----------7----------|-7--------------7----||
|-----------------|-5----------5----------|-5--------------5----||


   3rd Chorus
    &&
    A5            E5
                     |----3----|
    E.   S  Q        E    E    E E   E
||---------12----------------------------|
||o-9h==10----------10p===9h==10-9-------|
||-----------------------------------9---|
||---------------------------------------|
||o--------------------------------------|
||---------------------------------------|
|
|   E E     S S S S +S  S   E    S S S S
||---------------------------------------|
||o--------------------------------------|
||--2-2-----2-2-2-9-(9)-9---9----9-9-9-9-|
||--2-2-----2-2-2-9-(9)-9---9----9-9-9-9-|
||o-0-0-----0-0-0-7-(7)-7---7----7-7-7-7-|
||---------------------------------------|


  C#5                A5
  |--3---| |---3---|
  E  E   E E   E   E    Q      Q
|----------7h==9p==7--------------------|
|-9h10p==9--------------9---------------|
|------------------------------9--------|
|---------------------------------------|
|---------------------------------------|
|---------------------------------------|
|
| E    E   S S   S   S +S  S E S S S S
|---------------------------------------|
|---------------------------------------|
|-6----6---6-6---6----------------------|
|-6----6---6-6---6---7-(7)-7-7-7-7-7-7--|
|-4----4---4-4---4---7-(7)-7-7-7-7-7-7--|
|--------------------5-(5)-5-5-5-5-5-5--|


  1.
  A5              E5                   F#5                          B5
  |--3---|
  E  E   E  E   E    E    E  E   E      W
|----------12------------------------|----------------------------------||
|-9h10p==9------9---10----9----------|-12------------------------------o||
|---------------------------11---9---|----------------------------------||
|------------------------------------|----------------------------------||
|------------------------------------|---------------------------------o||
|------------------------------------|----------------------------------||
|
|                                       PM------------------------|
| E    E    S S S S +S  S E  S S S S    S S S S S S S S S S S S S S E
|------------------------------------|----------------------------------||
|------------------------------------|---------------------------------o||
|-----------------9-(9)-9-9--9-9-9-9-|------------------------------4---||
|-7----7----7-7-7-9-(9)-9-9--9-9-9-9-|--4-4-4-4-4-4-4-4-4-4-4-4-4-4-4---||
|-7----7----7-7-7-7-(7)-7-7--7-7-7-7-|--4-4-4-4-4-4-4-4-4-4-4-4-4-4-2--o||
|-5----5----5-5-5--------------------|--2-2-2-2-2-2-2-2-2-2-2-2-2-2-----||


  2.
  A5              E5                  F#5
  |--3---|
  E  E   E  E   E    E   E  E   E      W
|----------12-----------------------|----------------------------------|
|-9h10p==9------9---10---9----------|-12-------------------------------|
|--------------------------11---9---|----------------------------------|
|-----------------------------------|----------------------------------|
|-----------------------------------|----------------------------------|
|-----------------------------------|----------------------------------|
|
|                                      PM-------------------------------
| E    E    S S S E    S E  S S S S    S S S S S S S S S S S S S S S S
|-----------------------------------|----------------------------------|
|-----------------------------------|----------------------------------|
|-----------------9----9-9--9-9-9-9-|----------------------------------|
|-7----7----7-7-7-9----9-9--9-9-9-9-|--4-4-4-4-4-4-4-4-4-4-4-4-4-4-4-4-|
|-7----7----7-7-7-7----7-7--7-7-7-7-|--4-4-4-4-4-4-4-4-4-4-4-4-4-4-4-4-|
|-5----5----5-5-5-------------------|--2-2-2-2-2-2-2-2-2-2-2-2-2-2-2-2-|


  F#5
   +W
|------------------------------------||
|-(12)-------------------------------||
|------------------------------------||
|------------------------------------||
|------------------------------------||
|------------------------------------||
|
|----------------------------------|
|   S  S S S S S S S S S S S S S S S
|------------------------------------||
|------------------------------------||
|------------------------------------||
|---4--4-4-4-4-4-4-4-4-4-4-4-4-4-4-4-||
|---4--4-4-4-4-4-4-4-4-4-4-4-4-4-4-4-||
|---2--2-2-2-2-2-2-2-2-2-2-2-2-2-2-2-||


   Outro
    E5                                 C5
    E E S S S S  S  E   S +S  E.       E E S S S S  S  E   S +S  E.
||-----------------------------------|-----------------------------------|
||o----------------------------------|-----------------------------------|
||--9-9-9-9-9-9-13-11---9-(9)-8------|-9-9-9-9-9-9-13-11---9-(9)-8-------|
||--x-x-x-x-x-x--x--x---x-(x)-x------|-x-x-x-x-x-x--x--x---x-(x)-x-------|
||o-7-7-7-7-7-7-11--9---7-(7)-6------|-7-7-7-7-7-7-11--9---7-(7)-6-------|
||-----------------------------------|-----------------------------------|
|
|   E E S S E    S  S E    S  S  S S   E E S S E    S  S E    S  S  S S
||-----------------------------------|-----------------------------------|
||o----------------------------------|-----------------------------------|
||--9-9-9-9-9----9--9-9----9--9--9-9-|-5-5-5-5-5----5--5-5----5--5--5-5--|
||--9-9-9-9-9----9--9-9----9--9--9-9-|-5-5-5-5-5----5--5-5----5--5--5-5--|
||o-7-7-7-7-7----7--7-7----7--7--7-7-|-3-3-3-3-3----3--3-3----3--3--3-3--|
||-----------------------------------|-----------------------------------|


  C#5                                A5
  E E S S S S  S  E   S +S  E.       E E S S S S  S  E   S +S  E.
|----------------------------------|-----------------------------------||
|----------------------------------|----------------------------------o||
|-9-9-9-9-9-9-13-11---9-(9)-8------|-9-9-9-9-9-9-13-11---9-(9)-8-------||
|-x-x-x-x-x-x--x--x---x-(x)-x------|-x-x-x-x-x-x--x--x---x-(x)-x-------||
|-7-7-7-7-7-7-11--9---7-(7)-6------|-7-7-7-7-7-7-11--9---7-(7)-6------o||
|----------------------------------|-----------------------------------||
|
| E E S S E    S  S E    S  S  S S   E E S S E    S  S E    S  S  S S
|----------------------------------|-----------------------------------||
|----------------------------------|----------------------------------o||
|-6-6-6-6-6----6--6-6----6--6--6-6-|-----------------------------------||
|-6-6-6-6-6----6--6-6----6--6--6-6-|-7-7-7-7-7----7--7-7----7--7--7-7--||
|-4-4-4-4-4----4--4-4----4--4--4-4-|-7-7-7-7-7----7--7-7----7--7--7-7-o||
|----------------------------------|-5-5-5-5-5----5--5-5----5--5--5-5--||


  E5         E5 G#5   D#5   E5
  W          E. S +E  E +S  E. Q
|----------|----------------------*|
|----------|----------------------*|
|-9--------|-9--------8-(8)-9\----*|
|-9--------|-9--6-(6)-8-(8)-9\----*|
|-7--------|-7--6-(6)-6-(6)-7\----*|
|----------|----4-(4)-------------*|
|
| W          E. S +E  E +S  E. Q
|----------|----------------------*|
|----------|----------------------*|
|-9--------|-9--------8-(8)-9\----*|
|-9--------|-9--6-(6)-8-(8)-9\----*|
|-7--------|-7--6-(6)-6-(6)-7\----*|
|----------|----4-(4)-------------*|


Duration Legend
---------------
W - whole; H - half; Q - quarter; E - 8th; S - 16th; T - 32nd; X - 64th; a - acciaccatura
+ - note tied to previous; . - note dotted; .. - note double dotted
Uncapitalized letters represent notes that are staccato (1/2 duration)
Irregular groupings are notated above the duration line
Duration letters will always appear directly above the note/fret number it represents the
duration for.  Duration letters with no fret number below them represent rests.  Multi-
bar rests are notated in the form Wxn, where n is the number of bars to rest for.  Low
melody durations appear below the staff

Tablature Legend
----------------
 h   - hammer-on
 p   - pull-off
 b   - bend
 pb  - pre-bend
 r   - bend release (if no number after the r, then release immediately)
 /\  - slide into or out of (from/to "nowhere")
 s   - legato slide
 S   - shift slide
  - natural harmonic
[n]  - artificial harmonic
n(n) - tapped harmonic
 ~   - vibrato
 tr  - trill
 T   - tap
 TP  - trem. picking
 PM  - palm muting
\n/  - tremolo bar dip; n = amount to dip
 \n  - tremolo bar down
 n/  - tremolo bar up
/n\  - tremolo bar inverted dip
 =   - hold bend; also acts as connecting device for hammers/pulls
 <>  - volume swell (louder/softer)
 x   - on rhythm slash represents muted slash
 o   - on rhythm slash represents single note slash

Misc Legend
-----------
 |  - bar
||  - double bar
||o - repeat start
o|| - repeat end
*|  - double bar (ending)
 :  - bar (freetime)
 $  - Segno
 &  - Coda
Tap to rate this tab
 
# A B C D E F G H I J K L M N O P Q R S T U V W X Y Z