Song name
# A B C D E F G H I J K L M N O P Q R S T U V W X Y Z

Bodyrockers - Round And Round tab

Round and round:  Bodyrockers
By Thomas


E-----------------------------------------------------------------|
A------------8-8-8-8-8-8-------7----------------------------------|
D------------9-9-9-9-9-9-------7---------5--------------5-7-------|
G-------------------------------------------7----5-7----------7---|
B-----------------------------------------------------------------|
E-----------------------------------------------------------------|

E-----0-5-0-8-0-7-8-0-10-0-12-0-10-0-8----------------------------|
A-----------------------------------------------------------------|
D-----------------------------------------------------------------|
G-----------------------------------------------------------------|
B-----------------------------------------------------------------|
E-----------------------------------------------------------------|

E----------------------5------------------------------------------|
A-----(5)-----------5-----8-5--------5-5--------------------------|
D---7b-----7-5-----7------------7-5-------7-----------------------|
G--------------7--------------------------------------------------|
B-----------------------------------------------------------------|
E-----------------------------------------------------------------|

E-----------------------------------------------------------------|
A-----------------------------------------------------------------|
D---------5-----------5--------------5---5-7-7b-------------------|
G-------5---7-------5---5-7--------5---7--------------------------|
B--5-7----------5-7------------5-7--------------------------------|
E-----------------------------------------------------------------|

E-----------------------------------------------------------------|
A-------5---------------------------------------------------------|
D---------------5-----5-0---5-0-5---------------------------------|
G--7-7----7-7-7---7-7-----7-----5---------------------------------|
B-----------------------------------------------------------------|
E-----------------------------------------------------------------|
Tap to rate this tab
# A B C D E F G H I J K L M N O P Q R S T U V W X Y Z