Song name
# A B C D E F G H I J K L M N O P Q R S T U V W X Y Z

Bodyrockers - I Like The Way You Move tab

-------------------------------------------------------------------------------
			     I like the way you move - Band Name
-------------------------------------------------------------------------------
Tabbed by: AndyT
Email: andrew@norvil.net

Tuning: STANDARD

e|---------------------------------------------------|
B|---------------------------------------------------|
G|---------------------------------------------------|
D|---------------------------------------------------|  x2
A|-------------------------------------4-4---2-2-----|
E|-4-4-2-2-4---4-4-2-2-4---4-4-2-2-4-----------------|

e|---------------------------------------------------|
B|---------------------------------------------------|
G|---------------------------------------------------|
D|-----------------------------------6-6-6-x-4-4-----| x2
A|-6-6-4-4-6---6-6-4-4-6-x-6-6-4-4-6---4-4-x-2-2-----|
E|-4-4-2-2-4---4-4-2-2-4-x-4-4-2-2-4-----------------|

e|---------------------------------------------------|
B|---------------------------------------------------|
G|-------------------------------------6-6-x-4-4-----|
D|-6-6-4-4-6-6-6-6-4-4-6-x-6-6-4-4-6-6-6-6-x-4-4-----| x4
A|-6-6-4-4-6---6-6-4-4-6-x-6-6-4-4-6---4-4-x-2-2-----|
E|-4-4-2-2-4---4-4-2-2-4-x-4-4-2-2-4-----------------|

e|---------------------------------------------------|
B|---------------------------------------------------|
G|--6-6-x-4-4-x-6-6-x-4-4-x-6-6-6-6-6-6-6-6----------|
D|--6-6-x-4-4-x-6-6-x-4-4-x-6-6-6-6-6-6-6-6----------|
A|--4-4-x-2-2-x-4-4-x-2-2-x-4-4-4-4-4-4-4-4----------|
E|---------------------------------------------------|

e|---------------------------------------------------|
B|---------------------------------------------------|
G|-------------------------------------6-6-x-4-4-----|
D|-6-6-4-4-6-6-6-6-4-4-6-x-6-6-4-4-6-6-6-6-x-4-4-----| x4
A|-6-6-4-4-6---6-6-4-4-6-x-6-6-4-4-6---4-4-x-2-2-----|
E|-4-4-2-2-4---4-4-2-2-4-x-4-4-2-2-4-----------------|

And then you can figure it out by listening to the song
Tap to rate this tab
# A B C D E F G H I J K L M N O P Q R S T U V W X Y Z