Song name
# A B C D E F G H I J K L M N O P Q R S T U V W X Y Z

Bodyrockers - I Like The Way tab

Artist: Bodyrockers
Song: I Like The Way

This 100% Correct!
Use With Talk Effect On Most Effect Pedals (31)

Intro:
E---------------------------------------------------|
B---------------------------------------------------|
G-------------------------------------------6--4----|
D-6-6--4-4--6---6-6--4-4--6---6-6--4-4--6---6--4----|
A-6-6--4-4--6---6-6--4-4--6---6-6--4-4--6---4--2----|
E-4-4--2-2--4---4-4--2-2--4---4-4--2-2--4-----------|  Play This    Times.

Verse:
E---------------------------------------------------|
B---------------------------------------------------|
G-------------------------------------------6--4----|
D-6-6--4-4--6---6-6--4-4--6---6-6--4-4--6---6--4----|
A-6-6--4-4--6---6-6--4-4--6---6-6--4-4--6---4--2----|
E-4-4--2-2--4---4-4--2-2--4---4-4--2-2--4-----------|  Play This    Times.

Pre Chorus
E---------------------------------------------------|
B---------------------------------------------------|
G---6-4-6-4-6---------------------------------------|
D---6-4-6-4-6-Use Talk Effect-----------------------|
A---4-2-4-2-4---------------------------------------|
E---------------------------------------------------|

Chorus:
E---------------------------------------------------|
B---------------------------------------------------|
G-------------------------------------------6--4----|
D-6-6--4-4--6---6-6--4-4--6---6-6--4-4--6---6--4----|
A-6-6--4-4--6---6-6--4-4--6---6-6--4-4--6---4--2----|
E-4-4--2-2--4---4-4--2-2--4---4-4--2-2--4-----------|

Outro:
E---------------------------------------------------|
B---------------------------------------------------|
G-------------------------------------------6--4----|
D-6-6--4-4--6---6-6--4-4--6---6-6--4-4--6---6--4----|
A-6-6--4-4--6---6-6--4-4--6---6-6--4-4--6---4--2----|
E-4-4--2-2--4---4-4--2-2--4---4-4--2-2--4-----------|
Tap to rate this tab
# A B C D E F G H I J K L M N O P Q R S T U V W X Y Z