Song name
# A B C D E F G H I J K L M N O P Q R S T U V W X Y Z

Boehse Onkelz - Luege tab

not sure

s-slide
h-hammer on

-|----------------|----------------|
-|----6---5h6-----|----5---6s5-----|
-|----5---5-5-----|----3---3-3-----|
-|----7---5h7-----|----5---5-5-----|
-|----------------|----------------|
-|5-----------5-3-|--3---------3-3-|


-|----------------|----------------|
-|----6---5h6-----|----5---6s5-----|
-|----5---5-5-----|----3---3-3-----|
-|----7---5h7-----|----5---5-5-----|
-|----------------|----------------|
-|1-----------1-0-|--0---------0-1-|


hf with it
greez matze (Burning Guitar)
Tap to rate this tab
 
# A B C D E F G H I J K L M N O P Q R S T U V W X Y Z