Song name
# A B C D E F G H I J K L M N O P Q R S T U V W X Y Z

Boehse Onkelz - Entfache Dieses Feuer tab

Band:		Böhse Onkelz
Song:		Entfache dieses Feuer
Album:		Weiss
Jahr:		1993
Mix:		Live Version - Vaya con Tioz 2005

by:		chriZ



Melody:

e|-----------------|-----------------|-----------------|-----------------|
h|-----------------|-----------------|-----------------|-----------------|
g|-----------------|-----------------|-----------------|-----------------|
D|-----------------|-----------------|-----------------|-----------------|
A|-5-8-5-8-5-8-5-8-|-5-7-5-7-5-7-5-7-|-5-8-5-8-5-8-5-8-|-5-7-5-7-5-7-5-7-|
E|-----------------|-----------------|-----------------|-----------------|



Verse:

e|----------------2----------------------2--------------|
h|----------------2----------------------2--------------|
g|------------------------------------------------15\5--|
D|--2----4--5--2-----4--5--2----4--5--2-----4--5--------|
A|--2----4--5--2-----4--5--2----4--5--2-----4--5--------|
E|--0----2--3--0-----2--3--0----2--3--0-----2--3--------|



Bridge:

e|--------------------------------------------|
h|-----------------1210b----------------------|
g|---------------------11b--------------------|
D|--10----12----2-----------10----12----9--9--|
A|--10----12----2-----------10----12----9--9--|
E|---8----10----0------------8----10----7--7--|



Chorus:
									       2x
e|-------------------------------------------------------------------------------|
h|--------------------------------2---2------------------------------------------|
g|-----8-10-8----10-12-10-----------2------8-10-8----10-12-10---7-9-7----8-10-8--|
D|--10--------12----------5--4--2-------10--------12----------9-------10---------|
A|--10--------12----------5--4--2-------10--------12----------9-------10---------|
E|---8--------10----------3--2--0--------8--------10----------7--------8---------|



Melody:

e|-----------------|-----------------|-----------------|-----------------|
h|-----------------|-----------------|-----------------|-----------------|
g|-----------------|-----------------|-----------------|-----------------|
D|-----------------|-----------------|-----------------|-----------------|
A|-5-8-5-8-5-8-5-8-|-5-7-5-7-5-7-5-7-|-5-8-5-8-5-8-5-8-|-5-7-5-7-5-7-5-7-|
E|-----------------|-----------------|-----------------|-----------------|



Verse:

e|----------------2-----------------------------------------------|
h|----------------2-----------------------------------------12\3--|
g|-------------------------------------------1012b----------------|
D|--2----4--5--2-----4--5--2----4--5--2--1012b---10b--4--5--------|
A|--2----4--5--2-----4--5--2----4--5--2---------------4--5--------|
E|--0----2--3--0-----2--3--0----2--3--0---------------2--3--------|



Bridge:

e|--------------------------------------------|
h|-----------------1210b----------------------|
g|---------------------11b--------------------|
D|--10----12----2-----------10----12----9--9--|
A|--10----12----2-----------10----12----9--9--|
E|---8----10----0------------8----10----7--7--|



Chorus:
									       2x
e|-------------------------------------------------------------------------------|
h|--------------------------------2---2------------------------------------------|
g|-----8-10-8----10-12-10-----------2------8-10-8----10-12-10---7-9-7----8-10-8--|
D|--10--------12----------5--4--2-------10--------12----------9-------10---------|
A|--10--------12----------5--4--2-------10--------12----------9-------10---------|
E|---8--------10----------3--2--0--------8--------10----------7--------8---------|



Solo:

... coming soon :-)



Chorus:
									       2x
e|-------------------------------------------------------------------------------|
h|--------------------------------2---2------------------------------------------|
g|-----8-10-8----10-12-10-----------2------8-10-8----10-12-10---7-9-7----8-10-8--|
D|--10--------12----------5--4--2-------10--------12----------9-------10---------|
A|--10--------12----------5--4--2-------10--------12----------9-------10---------|
E|---8--------10----------3--2--0--------8--------10----------7--------8---------|



Melody:

e|-----------------|-----------------|-----------------|----------------------|
h|-----------------|-----------------|-----------------|----------------------|
g|-----------------|-----------------|-----------------|----------------------|
D|-----------------|-----------------|-----------------|------------------7\--|
A|-5-8-5-8-5-8-5-8-|-5-7-5-7-5-7-5-7-|-5-8-5-8-5-8-5-8-|-5-7-5-7-5-7-5-7--7\--|
E|-----------------|-----------------|-----------------|------------------5\--|
Tap to rate this tab
 
# A B C D E F G H I J K L M N O P Q R S T U V W X Y Z