Song name
# A B C D E F G H I J K L M N O P Q R S T U V W X Y Z

Boehse Onkelz - H tab

Lennart Manig
23:17 22.07.2007
Böhse Onkelz Tab - H

Verse:
e|--3-3------3-3-3-3------5-5-5-5---6---5--3-3-3-3-|
h|--3-3------4-4-4-4------6-6-6-6---6---6--6-6-6-6-|
g|--3-3------5-5-5-5------5-5-5-5---5---5--5-5-5-5-|
d|--5-5------5-5-5-5------3-3-3-3---3---3--3-3-3-3-|
a|--5-5------3-3-3-3------x-x-x-x---x---x--x-x-x-x-|
e|--3-3------3-3-3-3------x-x-x-x---x---x--x-x-x-x-|


Refrain:
e|--3-3-3-3------5-5-5------3| Rhythmus raushören
h|--3-3-3-3------6-6-6------3|
g|--3-3-3-3------7-7-7------3|
d|--5-5-5-5------7-7-7------5|
a|--5-5-5-5------5-5-5------5|
e|--3-3-3-3------5-5-5------3|

Abfolge:
Intro = 2x Verse
Verse1
Refrain
Verse2
Refrain
Verse3
Refrain


Wollte nur sagen dieser TAb ist von mir selber nirgends kopiert. Er lässt sich super 
und ist besser als der andere in emol und c oder wie auch immer... Wenn ihr noch fragen 
dann meldet euch bei Lennman@gmx.net thx
Tap to rate this tab
 
# A B C D E F G H I J K L M N O P Q R S T U V W X Y Z