Song name
# A B C D E F G H I J K L M N O P Q R S T U V W X Y Z

Boehse Onkelz - Nr 1 tab

Böhse Onkelz - Nummer 1

1.0 Verzerrte Gitarre: Intro

E|----------------------------|
B|----------------------------|
G|----------------------------|
D|----2---2-4-------2-4-2-----|
A|-4----4------4--4-------4-2-|	 
E|----------------------------|	 4x

2.0 Clean-Gitarre: Strophe

E|----------------|
B|----------------|
G|-6-6-6-6-6-6-9~-|
D|-6-6-6-6-6-6-9~-|
A|----------------|
E|----------------|		4x

1.1 Verzerrte Gitarre: Bridge

E|-----------------------------------------------------------------|
B|-----------------------------------------------------------------|
G|-----------------------------------------------------------------|
D|-6-6-6-6-6-6-6-6-8-8-8-8-8-8-8-8-9-9-9-9-9-9-9-9-4-4-4-4-4-4-4-4-|
A|-4-4-4-4-4-4-4-4-6-6-6-6-6-6-6-6-7-7-7-7-7-7-7-7-2-2-2-2-2-2-2-2-|
E|-----------------------------------------------------------------|	2x

1.2 Verzerrte Gitarre: Refrain

E|-----------------------------------------------------------------|
B|-----------------------------------------------------------------|
G|-----------------------------------------------------------------|
D|-6-6-6-6-6-6-6-6-6-6-6-6-6-6-6-6-4-4-4-4-4-4-4-4-4-4-4-4-4-4-4-4-|
A|-4-4-4-4-4-4-4-4-4-4-4-4-4-4-4-4-2-2-2-2-2-2-2-2-2-2-2-2-2-2-2-2-|
E|-----------------------------------------------------------------|

E|-----------------------------------------------------------------|
B|-----------------------------------------------------------------|
G|-----------------------------------------------------------------|
D|-2-2-2-2-2-2-2-2-2-2-2-2-2-2-2-2-4-4-4-4-4-4-4-4-4-4-4-4-4-4-4-4-|
A|-0-0-0-0-0-0-0-0-0-0-0-0-0-0-0-0-2-2-2-2-2-2-2-2-2-2-2-2-2-2-2-2-|
E|-----------------------------------------------------------------|	2x

1.0 Verzerrte Gitarre

E|----------------------------|
B|----------------------------|
G|----------------------------|
D|----2---2-4-------2-4-2-----|
A|-4----4------4--4-------4-2-|	 
E|----------------------------|	 4x

2.0 Clean-Gitarre: Strophe

E|----------------|
B|----------------|
G|-6-6-6-6-6-6-9~-|
D|-6-6-6-6-6-6-9~-|
A|----------------|
E|----------------|		4x

1.1 Verzerrte Gitarre: Bridge

E|-----------------------------------------------------------------|
B|-----------------------------------------------------------------|
G|-----------------------------------------------------------------|
D|-6-6-6-6-6-6-6-6-8-8-8-8-8-8-8-8-9-9-9-9-9-9-9-9-4-4-4-4-4-4-4-4-|
A|-4-4-4-4-4-4-4-4-6-6-6-6-6-6-6-6-7-7-7-7-7-7-7-7-2-2-2-2-2-2-2-2-|
E|-----------------------------------------------------------------|	2x

1.2 Verzerrte Gitarre: Refrain

E|-----------------------------------------------------------------|
B|-----------------------------------------------------------------|
G|-----------------------------------------------------------------|
D|-6-6-6-6-6-6-6-6-6-6-6-6-6-6-6-6-4-4-4-4-4-4-4-4-4-4-4-4-4-4-4-4-|
A|-4-4-4-4-4-4-4-4-4-4-4-4-4-4-4-4-2-2-2-2-2-2-2-2-2-2-2-2-2-2-2-2-|
E|-----------------------------------------------------------------|

E|-----------------------------------------------------------------|
B|-----------------------------------------------------------------|
G|-----------------------------------------------------------------|
D|-2-2-2-2-2-2-2-2-2-2-2-2-2-2-2-2-4-4-4-4-4-4-4-4-4-4-4-4-4-4-4-4-|
A|-0-0-0-0-0-0-0-0-0-0-0-0-0-0-0-0-2-2-2-2-2-2-2-2-2-2-2-2-2-2-2-2-|
E|-----------------------------------------------------------------|	2x

1.3 Verzerrte Gitarre: Bridge

E|------------------------------|
B|------------------------------|
G|------------------------------|
D|-6--6-6-8-8-8-9--9-9-4--4-4-4-|
A|-4--4-4-6-6-6-7--7-7-2--2-2-2-|
E|------------------------------|

1.4 Verzerrte Gitarre: Solo 1.1		3.0 Verzerrte Gitarre 2: Solo 2.0

E|-7-9~7-9~7-9~7-9~7-9~|		E|----------------|
B|---------------------|		B|----------------|
G|---------------------|		G|-12~12~12~12~12~|
D|---------------------|		D|----------------|
A|---------------------|		A|----------------|
E|---------------------|	4x	E|----------------|

1.5 Verzerrte Gitarre: Solo 1.2

E|--------------------------------------------------------------------------------------------|
B|-----------------------14-14-14-14-12-10-9-7~14-14-16-17-19-17-12~10-10-12-14-12-10-9~7~----|
G|--------------------------------------------------------------------------------------------|
D|--------------------------------------------------------------------------------------------|
A|-11--11-13-14-16-14-11----------------------------------------------------------------------|
E|---------------------------------------------------------------------------------------- 9>2|

3.1 Verzerrte Gitarre 2: Solo 2.1

E|------------------|		E|-------------|
B|------------------|		B|-------------|
G|------------------|		G|-------------|
D|------6-x-6-4/6-6~|		D|-4/6-6~4/6-6~|
A|-4-xx-------------|		A|-------------|
E|------------------|	3x 	E|-------------|

1.2 Verzerrte Gitarre: Refrain

E|-----------------------------------------------------------------|
B|-----------------------------------------------------------------|
G|-----------------------------------------------------------------|
D|-6-6-6-6-6-6-6-6-6-6-6-6-6-6-6-6-4-4-4-4-4-4-4-4-4-4-4-4-4-4-4-4-|
A|-4-4-4-4-4-4-4-4-4-4-4-4-4-4-4-4-2-2-2-2-2-2-2-2-2-2-2-2-2-2-2-2-|
E|-----------------------------------------------------------------|

E|-----------------------------------------------------------------|
B|-----------------------------------------------------------------|
G|-----------------------------------------------------------------|
D|-2-2-2-2-2-2-2-2-2-2-2-2-2-2-2-2-4-4-4-4-4-4-4-4-4-4-4-4-4-4-4-4-|
A|-0-0-0-0-0-0-0-0-0-0-0-0-0-0-0-0-2-2-2-2-2-2-2-2-2-2-2-2-2-2-2-2-|
E|-----------------------------------------------------------------|	4x

1.6 Verzerrte Gitarre: Outro

E|-------------------------------------------------------------------|
B|-------------------------------------------------------------------|
G|-------------------------------------------------------------------|
D|-6-6-6-6-6-6-6-6-6-8-8-8-8-8-8-8-8-9-9-9-9-9-9-9-9-4-4-4-4-4-4-4-4-|
A|-4-4-4-4-4-4-4-4-4-6-6-6-6-6-6-6-6-7-7-7-7-7-7-7-7-2-2-2-2-2-2-2-2-|
E|-------------------------------------------------------------------|

E|------------------------------------------------------------------------------|
B|------------------------------------------------------------------------------|
G|------------------------------------------------------------------------------|
D|-6-6-6-6-6-6-6-6-6-8-8-8-8-8-8-8-8-9-9-9-9-9-9-9-9-11-11-11-11-11-11-11-11-13~|
A|-4-4-4-4-4-4-4-4-4-6-6-6-6-6-6-6-6-7-7-7-7-7-7-7-7--9--9--9--9--9--9--9--9-11~|
E|------------------------------------------------------------------------------|

Ich habe mir vorhin mal die Tabs herausgehört und dachte mir ihr könntet
damit vielleicht auch etwas anfangen. Das ist mein erster Song - ich hoffe
die Tabs sind verwertbar. Bewertungen wären nett. Viel Spaß mit dem Lied ;)
Tap to rate this tab
# A B C D E F G H I J K L M N O P Q R S T U V W X Y Z