Song name
# A B C D E F G H I J K L M N O P Q R S T U V W X Y Z

Boehse Onkelz - Der Himmel Kann Warten tab

Intro: Clean

e|-------------------|
B|------0-------3-0--|
G|-----0-0-----0-----|
D|----2---2---2------|
A|---2-----2-3-------|
E|--0----------------| X8

Verse: Clean

e|----------------0---|
B|------0-------3--3--|
G|-----0-0-----0------|
D|----2---2---2-------|
A|---2-----2-3--------|
E|--0-----------------| X4



Pre-Chorus: Distortion

        C            D                      H              Em    
Sag dem Himmel guten Tag, dass ich mein verschissnes Leben mag 
                    C   Em  
Drum bleib ich noch hiiieer.



Chorus: Distortion

                C      Em                  C
Der Himmel kann warten, ja der Himmel kann warten. 
    D                                            En
Das Leben macht mich hungrig und ich krieg nicht genug.
C               Em     C                   Em  
Der Himmel kann warten, ja der Himmel kann warten. 
C            D                             Em
Ich hab noch lange nicht, noch lange nicht genug.



Interlude: Clean

e|----------------0---|
B|------0-------3--3--|
G|-----0-0-----0------|
D|----2---2---2-------|
A|---2-----2-3--------|
E|--0-----------------| X4



Verse 2: Clean

e|----------------0---|
B|------0-------3--3--|
G|-----0-0-----0------|
D|----2---2---2-------|
A|---2-----2-3--------|
E|--0-----------------| X4


Pre-Chorus: Distortion

     C                  D        H                                  Em
Doch du bist nicht mein Erbe und dies ist nicht der Tag, an dem ich sterbe




Chorus: Distortion

                C      Em                  C
Der Himmel kann warten, ja der Himmel kann warten. 
    D                                            Em
Das Leben macht mich hungrig und ich krieg nicht genug.
C               Em     C                   Em  
Der Himmel kann warten, ja der Himmel kann warten. 
C            D                             Em
Ich hab noch lange nicht, noch lange nicht genug.



Solo: Clean

e|-----------------6b(7)-5-12~~----------------6b(7)-5-----|
B|--5p8-8-8~~--5-8---------12~~--5p8-8-8~~-5-8---------5~~-|
G|---------------------------------------------------------|
D|---------------------------------------------------------|
A|---------------------------------------------------------|
E|---------------------------------------------------------|

e|---------12----10-11b12-12-10~~-10-12-10-12-------------------------------------|
B|--12--12----12------------------------------12----------------10b(12)-10-8------|
G|------------------------------------------------8b9-7----------------------9~~~-|
D|------------------------------------------------------8b9-7~~-------------------|
A|--------------------------------------------------------------------------------|
E|--------------------------------------------------------------------------------|



Pre-Chorus: Distortion

        C            D                      H              Em    
Sag dem Himmel guten Tag, dass ich mein verschissnes Leben mag 
                    C   Em  
Drum bleib ich noch hiiieer.



Chorus: Distortion

                C      Em                  C
Der Himmel kann warten, ja der Himmel kann warten. 

    D                                            Em
Das Leben macht mich hungrig und ich krieg nicht genug.

C               Em     C                   Em  
Der Himmel kann warten, der Himmel kann warten. 
Der Himmel kann warten, der Himmel kann warten. 
Der Himmel kann warten, ja der Himmel kann warten
Der Himmel kann warten, der Himmel kann warten
Der Himmel kann warten, ja der Himmel kann warten


Am Ende kommt noch ein kleines Solo, das hab ich aber nicht mehr getabbed..kommt vllt noch nach;)
Tap to rate this tab
# A B C D E F G H I J K L M N O P Q R S T U V W X Y Z