Song name
# A B C D E F G H I J K L M N O P Q R S T U V W X Y Z

Boehse Onkelz - Finde Die Wahrheit tab

Intro

E--------------------------------------|
B--------------------------------------|
G----------------------------------10--|
D--10--10--10--10--10--10--10--10--10--|
A--10--10--10--10--10--10--10--10---8--|
E---8---8---8---8---8---8---8--8-------|
Pm:                            -

Verse

E--------------------------------------------------------------------------|
B--------------------------------------------------------------------------|
G--------------------------------------------------------------------------|
D-10-10-10-10-10-10-10-10-5-5-5-5-5-5-5-5-7-7-7-7-7-7-7-7-3-3-3-3-3-3-3-3--|
A-10-10-10-10-10-10-10-10-5-5-5-5-5-5-5-5-7-7-7-7-7-7-7-7-3-3-3-3-3-3-3-3--|
E--8--8--8--8--8--8--8--8-3-3-3-3-3-3-3-3-5-5-5-5-5-5-5-5-1-1-1-1-1-1-1-1--|

Chorus

E---------------------------------------------------------------------------|
B---------------------------------------------------------------------------|
G---------------------------------------------------------------------------|
D--7-7-7-7-7-7-7-7-10-10-10-10-10-10-10-10-5-5-5-5-5-5-5-5-3-3-3-3-3-3-3-3--|
A--7-7-7-7-7-7-7-7-10-10-10-10-10-10-10-10-5-5-5-5-5-5-5-5-3-3-3-3-3-3-3-3--|
E--5-5-5-5-5-5-5-5--8--8--8--8--8--8--8--8-3-3-3-3-3-3-3-3-1-1-1-1-1-1-1-1--|

Lyrics:

Ich rieche Angst,
Ich rieche Korruption
Erlahmten Glauben
Resignation
Ich rieche eine kranke
Eine kranke mude Welt
Ich rieche Gier
Die Gier nach Geld

Finde die Wahrheit
Hab keine Angst
Finde die Wahrheit
Solange Du noch kannst
Denn die Wege sind lang
Und selbst der Tod ist nicht ihr Ende
Wach endlich auf
Reich mir die Hande -
werde Legende

Ich laufe durch die Strassen
Und alles was ich seh' - sind
Verlorene Seelen
Gesichtlose Armeen
Korrupte Bullen
Schulen voller Idioten
Falsche Goetter
Die falschen Drogen
Tap to rate this tab
# A B C D E F G H I J K L M N O P Q R S T U V W X Y Z