Guitaretab - guitar tabs
Song name
# A B C D E F G H I J K L M N O P Q R S T U V W X Y Z

Boehse Onkelz - Fuer Immer tab

	BOEHSE ONKELZ - Fuer Immer (Tabbed By Amnesic Aphasia)


	Intro:

	|-------------|-------------|-------------|-------------|
	|-------0-----|-------0-----|-------0-----|-------0-----|
	|-----0---0---|-----0---0---|-----0---0---|-----0---0---|
	|---9-------9-|---9-------9-|---7-------7-|---7-------7-|
	|-7-----------|-7-----------|-5-----------|-5-----------|
	|-------------|-------------|-------------|-------------|


	|-------------|-------------|-------------|-------------|
	|-------0-----|-------0-----|-------0-----|-------0-----|
	|-----0---0---|-----0---0---|-----0---0---|-----0---0---|
	|---9-------9-|---9-------9-|---7-------7-|---7-------7-|
	|-7-----------|-7-----------|-5-----------|-5-----------|
	|-------------|-------------|-------------|-------------|


	1. Strophe:

	|-------------|-------------|-------------|-------------|
	|-------0-----|-------0-----|-------0-----|-------0-----|
	|-----0---0---|-----0---0---|-----0---0---|-----0---0---|
	|---9-------9-|---9-------9-|---7-------7-|---7-------7-|
	|-7-----------|-7-----------|-5-----------|-5-----------|
	|-------------|-------------|-------------|-------------|


	|-------------|-------------|-------------|-------------|
	|-------0-----|-------0-----|-------0-----|-------0-----|
	|-----0---0---|-----0---0---|-----0---0---|-----0---0---|
	|---9-------9-|---9-------9-|---7-------7-|---7-------7-|
	|-7-----------|-7-----------|-5-----------|-5-----------|
	|-------------|-------------|-------------|-------------|


	|-------------|-------------|-------------|-------------|
	|-------0-----|-------0-----|-------0-----|-------0-----|
	|-----0---0---|-----0---0---|-----0---0---|-----0---0---|
	|---5-------5-|---5-------5-|---7-------7-|---7-------7-|
	|-3-----------|-3-----------|-5-----------|-5-----------|
	|-------------|-------------|-------------|-------------|


	|-------------|-------------|-------------|-------------|
	|-------0-----|-------0-----|-------0-----|-------0-----|
	|-----0---0---|-----0---0---|-----0---0---|-----0---0---|
	|---5-------5-|---5-------5-|---4-------4-|---4-------4-|
	|-3-----------|-3-----------|-2-----------|-2-----------|
	|-------------|-------------|-------------|-------------|


	Bridge:

	|-0-|-0-|-0-|-0-|-0-|-0-|-0-|-0-|
	|-0-|-0-|-0-|-0-|-0-|-0-|-0-|-0-|
	|-2-|-0-|-2-|-0-|-2-|-0-|-2-|-0-|
	|-2-|-2-|-2-|-2-|-2-|-2-|-2-|-2-|
	|-0-|-3-|-0-|-3-|-0-|-3-|-0-|-3-|
	|-0-|-0-|-0-|-0-|-0-|-0-|-0-|-0-|


	Refrain:

	|-0-|-0-0-0-|-3-|-2-|
	|-0-|-1-3-1-|-0-|-3-|
	|-0-|-0-0-0-|-0-|-4-|
	|-2-|-2-2-2-|-0-|-4-|
	|-2-|-3-3-3-|-2-|-2-|
	|-0-|-0-0-0-|-3-|-2-|

	|-0-|-0-0-0-|-3-|-2-|
	|-0-|-1-3-1-|-0-|-3-|
	|-0-|-0-0-0-|-0-|-4-|
	|-2-|-2-2-2-|-0-|-4-|
	|-2-|-3-3-3-|-2-|-2-|
	|-0-|-0-0-0-|-3-|-2-|
	

	|-------------|-------------|-------------|-------------|
	|-------0-----|-------0-----|-------0-----|-------0-----|
	|-----0---0---|-----0---0---|-----0---0---|-----0---0---|
	|---9-------9-|---9-------9-|---7-------7-|---7-------7-|
	|-7-----------|-7-----------|-5-----------|-5-----------|
	|-------------|-------------|-------------|-------------|

	|-------------|-------------|-------------|-------------|
	|-------0-----|-------0-----|-------0-----|-------0-----|
	|-----0---0---|-----0---0---|-----0---0---|-----0---0---|
	|---9-------9-|---9-------9-|---7-------7-|---7-------7-|
	|-7-----------|-7-----------|-5-----------|-5-----------|
	|-------------|-------------|-------------|-------------|


	2. Strophe:

	|-------------|-------------|-------------|-------------|
	|-------0-----|-------0-----|-------0-----|-------0-----|
	|-----0---0---|-----0---0---|-----0---0---|-----0---0---|
	|---9-------9-|---9-------9-|---7-------7-|---7-------7-|
	|-7-----------|-7-----------|-5-----------|-5-----------|
	|-------------|-------------|-------------|-------------|


	|-------------|-------------|-------------|-------------|
	|-------0-----|-------0-----|-------0-----|-------0-----|
	|-----0---0---|-----0---0---|-----0---0---|-----0---0---|
	|---9-------9-|---9-------9-|---7-------7-|---7-------7-|
	|-7-----------|-7-----------|-5-----------|-5-----------|
	|-------------|-------------|-------------|-------------|

[ Tab from: http://www.guitaretab.com/b/boehse-onkelz/248452.html ]
	|-------------|-------------|-------------|-------------|
	|-------0-----|-------0-----|-------0-----|-------0-----|
	|-----0---0---|-----0---0---|-----0---0---|-----0---0---|
	|---5-------5-|---5-------5-|---7-------7-|---7-------7-|
	|-3-----------|-3-----------|-5-----------|-5-----------|
	|-------------|-------------|-------------|-------------|


	|-------------|-------------|-------------|-------------|
	|-------0-----|-------0-----|-------0-----|-------0-----|
	|-----0---0---|-----0---0---|-----0---0---|-----0---0---|
	|---5-------5-|---5-------5-|---4-------4-|---4-------4-|
	|-3-----------|-3-----------|-2-----------|-2-----------|
	|-------------|-------------|-------------|-------------|


	Bridge:

	|-0-|-0-|-0-|-0-|-0-|-0-|-0-|-0-|
	|-0-|-0-|-0-|-0-|-0-|-0-|-0-|-0-|
	|-2-|-0-|-2-|-0-|-2-|-0-|-2-|-0-|
	|-2-|-2-|-2-|-2-|-2-|-2-|-2-|-2-|
	|-0-|-3-|-0-|-3-|-0-|-3-|-0-|-3-|
	|-0-|-0-|-0-|-0-|-0-|-0-|-0-|-0-|


	Refrain:

	|-0-|-0-0-0-|-3-|-2-|
	|-0-|-1-3-1-|-0-|-3-|
	|-0-|-0-0-0-|-0-|-4-|
	|-2-|-2-2-2-|-0-|-4-|
	|-2-|-3-3-3-|-2-|-2-|
	|-0-|-0-0-0-|-3-|---|

	|-0-|-0-0-0-|-3-|-2-|
	|-0-|-1-3-1-|-0-|-3-|
	|-0-|-0-0-0-|-0-|-4-|
	|-2-|-2-2-2-|-0-|-4-|
	|-2-|-3-3-3-|-2-|-2-|
	|-0-|-0-0-0-|-3-|---|


	Solo:

	|-------------|-------------|-----------------|
	|-------------|-------------|-----------------|
	|-------------|-------------|-----------------|
	|-------2^4^2-|-------2^4^2-|-------2^4^2-4-2-|
	|-------------|-------------|-----------------|
	|-0-2-3-------|-0-2-3-------|-0-2-3-----------|

	|-------------|-------------|-----------------|
	|-------------|-------------|-----------------|
	|-------------|-------------|---------------0-|
	|-------2^4^2-|-------2^4^2-|-------2^4^2-4---|
	|-------------|-------------|-----------------|
	|-0-2-3-------|-0-2-3-------|-0-2-3-----------|

	|---------0-----|---------0-----|---------0---------|
	|-----0-3---3---|-----0-3---3---|-----0-3---3-----0-|
	|-0-2---------0-|-0-2---------0-|-0-2---------0-0---|
	|---------------|---------------|-------------------|
	|---------------|---------------|-------------------|
	|---------------|---------------|-------------------|

	|---------0-----|---------0-----|---------0---------|
	|-----0-3---3---|-----0-3---3---|-----0-3---3-----0-|
	|-0-2---------0-|-0-2---------0-|-0-2---------0-2---|
	|---------------|---------------|-------------------|
	|---------------|---------------|-------------------|
	|---------------|---------------|-------------------|

	|---3-2---|---3-2---3-2---|---3-2---3-2---|---3-2---3-2---|
	|-3-----3-|-3-----3-----3-|-3-----3-----3-|-3-----3-----3-|
	|---------|---------------|---------------|---------------|
	|---------|---------------|---------------|---------------|
	|---------|---------------|---------------|---------------|
	|---------|---------------|---------------|---------------|

	|---3-2---3-2---|---3-2---3-2---|---3-2---3-2---|---3-2---3-2---|---3-2-|
	|-3-----3-----3-|-3-----3-----3-|-3-----3-----3-|-3-----3-----3-|-3-----|
	|---------------|---------------|---------------|---------------|-------|
	|---------------|---------------|---------------|---------------|-------|
	|---------------|---------------|---------------|---------------|-------|
	|---------------|---------------|---------------|---------------|-------|

	Bridge:

	|-0-|-0-|-0-|-0-|-0-|-0-|-0-|-0-|
	|-0-|-0-|-0-|-0-|-0-|-0-|-0-|-0-|
	|-2-|-0-|-2-|-0-|-2-|-0-|-2-|-0-|
	|-2-|-2-|-2-|-2-|-2-|-2-|-2-|-2-|
	|-0-|-3-|-0-|-3-|-0-|-3-|-0-|-3-|
	|-0-|-0-|-0-|-0-|-0-|-0-|-0-|-0-|


	Refrain:

	|-0-|-0-0-0-|-3-|-2-|
	|-0-|-1-3-1-|-0-|-3-|
	|-0-|-0-0-0-|-0-|-4-|
	|-2-|-2-2-2-|-0-|-4-|
	|-2-|-3-3-3-|-2-|-2-|
	|-0-|-0-0-0-|-3-|---|

	|-0-|-0-0-0-|-3-|-2-|
	|-0-|-1-3-1-|-0-|-3-|
	|-0-|-0-0-0-|-0-|-4-|
	|-2-|-2-2-2-|-0-|-4-|
	|-2-|-3-3-3-|-2-|-2-|
	|-0-|-0-0-0-|-3-|---|


	Outro:

	|-(12)-|-(7)-|-(12)-|-(7)-|-(12)-|-(7)-|-(12)-|-0-|
	|-(12)-|-(7)-|-(12)-|-(7)-|-(12)-|-(7)-|-(12)-|-0-|
	|-(12)-|-(7)-|-(12)-|-(7)-|-(12)-|-(7)-|-(12)-|-0-|
	|-(12)-|-(7)-|-(12)-|-(7)-|-(12)-|-(7)-|-(12)-|-2-|
	|------|-----|------|-----|------|-----|------|-2-|
	|------|-----|------|-----|------|-----|------|-0-|

Die Klammern sind Flageoletttoene! Der letzte Griff (Em) wird von unten nach oben gestrichen!

Related for Fuer Immer tab
Fuer Immer chords by Boehse Onkelz