Song name
# A B C D E F G H I J K L M N O P Q R S T U V W X Y Z

Boehse Onkelz - Mexico tab

g = gedämpft (damped)

--Into--
E----------------------------------------------------|
H----------------------------------------------------|
G---9--7-7--7-12-11-9-11----9--7-7--7-12-11--14------|
D----------------------------------------------------|
A---7--5-5--5-10--9-7--9----7--5-5--5-10--9--12------|
E----------------------------------------------------|

E----------------------------------------------------|
H----------------------------------------------------|
G---9--7-7--7-12-11-9-11----9--7-7--7-12-11--14------|
D----------------------------------------------------|
A---7--5-5--5-10--9-7--9----7--5-5--5-10--9--12------|
E----------------------------------------------------|

--Verse--


E---7-8-8-7----------|              2x
H---7-7-7-7----------|
G---7-7-7-7----------|
D--------------------|
A------------2-3-4-0-|
E--------------------|

E---7-8-8-7----7-8-7-8-7---7-8-7-8-7-|
H---7-7-7-7----7-7-7-7-7---7-7-7-7-7-|
G---7-7-7-7----7-7-7-7-7---7-7-7-7-7-|
D------------------------------------|
A------------------------------------|
E------------------------------------|

E---7-8-8-7----------|              2x
H---7-7-7-7----------|
G---7-7-7-7----------|
D--------------------|
A------------2-3-4-0-|
E--------------------|

                                   g g g g g   g g g g g   g g g g g
E---7-8-8-7----7-8-7-8-7----------------------------------------------------|
H---7-7-7-7----7-7-7-7-7----------------------------------------------------|
G---7-7-7-7----7-7-7-7-7---7-9----------------------------------------------|
D--------------------------7-9-7---7-7-7-7-7-7-7-7-7-7-7-7-7-7-7-7-7-7-7-7-7|
A--------------------------5-7-7---7-7-7-7-7-7-7-7-7-7-7-7-7-7-7-7-7-7-7-7-7|
E------------------------------5---5-5-5-5-5-5-5-5-5-5-5-5-5-5-5-5-5-5-5-5-5|

--Refrain--
E----------------------------------------------|
H----------------------------------------------|
G-----------9-9--9-9-9-9-11-11-9-7-9--9-9-9----|
D----7-7-7--9-9--9-9-9-9-11-11-9-7-9--9-9-9----|
A----7-7-7--7-7--7-7-7-7--9--9-7-5-7--7-7-7----|
E----5-5-5-------------------------------------|


E--------------------------------------------|
H--------------------------------------------|
G-----------9-9--9-9-9-9--7-7-6-4-7--7-7-7---|
D----7-7-7--9-9--9-9-9-9--7-7-6-4-7--7-7-7---|
A----7-7-7--7-7--7-7-7-7--5-5-4-2-5--5-5-5---|
E----5-5-5-----------------------------------|


E--------------------------------------------------------------------------|
H--------------------------------------------------------------------------|
G---------9-9--9-9-9-9-11-11-11-11-9--9-9-9-9--9-9-7-7--7--9-9--9---9------|
D--7-7-7--9-9--9-9-9-9-11-11-11-11-7--9-9-9-9--9-9-7-7--7--9-9--9-7-9-7-7-7|
A--7-7-7--7-7--7-7-7-7--9--9--9--9-7--7-7-7-7--7-7-5-5--5--7-7--7-7-7-7-7-7|
E--5-5-5----------------------------------------------------------5---5-5-5|

 -- Intro --
 -- verse --
 --refrain--

"Jetzt Kommt die Stelle zum Tanzeeeeeeeeen"!!
E-----------------------------------------------------|   2X
H--------------------- -------------------------------|
G-----------------------------------------------------|
D-----------------------------------------------------|
A----45---------45---------4577777754-----------------|
E-- 7--555555557--555555557----------7555555555-------|

     g g g g g g   g g   g g g   g g g g g g   g g
E----------------------------------------------------|
H----------------------------------------------------|
G--7-7-7-7-7-7-7-6-6-6---------7-7-7-7-7-7-7-4-4-4---|
D--7-7-7-7-7-7-7-6-6-6-7-7-7-7-7-7-7-7-7-7-7-4-4-4---|
A--5-5-5-5-5-5-5-4-4-4-7-7-7-7-5-5-5-5-5-5-5-6-6-6---|
E----------------------5-5-5-5-----------------------|

     g g g    g g g g g g   g g   g g
E----------------------------------------------------|
H----------------------------------------------------|
G-----------7-7-7-7-7-7-7-6-6-6-7-7-7-7-9--7---------|
D--7-7-7-7--7-7-7-7-7-7-7-6-6-6-7-7-7-7-9--7--7------|
A--7-7-7-7--5-5-5-5-5-5-5-4-4-4-5-5-5-5-7--5--7------|
E--5-5-5-5------------------------------------5------|

----------------Refrain------------------------------


______________________________________________________
Hoffe konnte euch weiter helfen :)
I hope i could help you further :)
Tap to rate this tab
 
# A B C D E F G H I J K L M N O P Q R S T U V W X Y Z