Song name
# A B C D E F G H I J K L M N O P Q R S T U V W X Y Z

Boehse Onkelz - Auf Gute Freunde tab

So spielt es (Meiner Meinung nach) boguitar87

b= Bend
/= Slide

E|--------------------------------------------------------------------------|
B|--------------------------------------------------------------------------|
G|--------------------------------------------------------------------------|
D|--------------------------------------------------------------------------|
A|-------------------------------------9-7----7--------7--------------------|
E|-7-10-7-9-7-10-7---7-10-7-9-7-10-7-------10---9---10---10-9---------------|

E|--------------------------------------------------------------------------|
B|--------------------------------------------------------------------------|
G|-----------------------------------------------------7--------------------|
D|----------------------------------------------7---9----9-7----------------|
A|-----------------------------------9-7-9-10-------------------------------|
E|-7-10-7-9-7-10-7---7-10-7-9-7-10-7----------------------------------------|

E|--------------------------------------------------------------------------|
B|-10b-10b---10b-7---------------------7-10-7-------------------------------|
G|-----------------9-7-9------9b-9-7-9--------9b-7-9------------------------|
D|--------------------------------------------------------------------------|
A|--------------------------------------------------------------------------|
E|--------------------------------------------------------------------------|

E|-7-----------7-----------7-----------7------------------------------------|
B|---10-7-10-----10-7-10-----10-7-10-----10-7-10----------------------------|
G|--------------------------------------------------------------------------|
D|--------------------------------------------------------------------------|
A|--------------------------------------------------------------------------|
E|--------------------------------------------------------------------------|

E|-12-10----10---12-10----10---12-10----10---12-10----10--------------------|
B|-------12------------12------------12------------12-----------------------|
G|--------------------------------------------------------------------------|
D|--------------------------------------------------------------------------|
A|--------------------------------------------------------------------------|
E|--------------------------------------------------------------------------|

E|-14-14-14-12-12-12-10-10-10-9-9-9-10-12/----------------------------------|
B|--------------------------------------------------------------------------|
G|--------------------------------------------------------------------------|
D|--------------------------------------------------------------------------|
A|--------------------------------------------------------------------------|
E|--------------------------------------------------------------------------|
Tap to rate this tab
# A B C D E F G H I J K L M N O P Q R S T U V W X Y Z