Song name
# A B C D E F G H I J K L M N O P Q R S T U V W X Y Z

Boehse Onkelz - Auf Gute Freunde tab

böhse onkelz

auf gute Freunde

-Live in Dortmund Version-

Tuning: Standart


Solo:

e|-------------------------------------------------------------------|
h|-------------------------------------------------------------------|
g|-------------------------------------------------------------------|
D|-------------------------------------------------------------------|
A|-----------------------------------9--7------7-----5--5--7--5--4---|
E|----7--10--X--9--10--X--10--9--10--------10-----9------------------|


e|---------------------------------------------------------------|
h|---------------------------------------------------------------|
g|------------------------------------------------------7--------|
D|---------------------------------------------7--7--9-----9--7--|
A|--------------------------------9--7--9--10--------------------|
E|----10--X--9--10--X--10--9--10---------------------------------|


e|-----------------------------------------------------------------------|
h|----12---12---12--10--7------------7-----12--10--7--------7------------|
g|----14b--14b-------------9--7--9~-----9-------------9--7-----9--7h9p7--|
D|-----------------------------------------------------------------------|
A|-----------------------------------------------------------------------|
E|-----------------------------------------------------------------------|


e|--7p5--5h7p5--5h7p5--5h7p5--5-10p7--7h10p7--7h10p7--7h10p7--7--|
h|------7------7------7------7------10------10------10------10---|
g|---------------------------------------------------------------|
D|---------------------------------------------------------------|
A|---------------------------------------------------------------|
E|---------------------------------------------------------------|


e|--14-14-14--12-12-12--10-10-10--9-9-9--10-12-X-12-12~~~~~~~~--|
h|------------------------------------------12-X-12-12----------|
g|--------------------------------------------------------------|
D|--------------------------------------------------------------|
A|--------------------------------------------------------------|
E|--------------------------------------------------------------|


Kann sein das es nicht so ganz 100%ig richtig ist,
aber ca. 99% müsste okay sein.
Das mit den Deathnotes (also mit den X'n) nicht so eng sehen :-)
Have Fun !!!
Tap to rate this tab
# A B C D E F G H I J K L M N O P Q R S T U V W X Y Z