Song name
# A B C D E F G H I J K L M N O P Q R S T U V W X Y Z

Boehse Onkelz - Auf Gute Freunde tab

BÖHSE ONKELZ - AUF GUTE FREUNDE
Lyrics & Song by Böhse Onkelz | Tabbed by Marvin B.
Arranged for 1 E-Guitar. Sounds: Distortion & Gain


==INTRO=================================================

Intro Riff#1: 4x
E|------------------------------------------------------|
H|------------------------------------------------------|
G|------------------------------------------------------|
D|------------------------------------------------------|
A|-------5-5---------5-5-----------------5-5------------|
E|-5-6-7-----7-5-6-7-----7-5-6-7-7-5-6-7-----7-5-6-7-7--|


E|------------------------------------------------------|
H|------------------------------------------------------|
G|------------------------------------------------------|
D|------------------------------------------------------|
A|-5-5--------------------------------------------------|
E|-----7-7-7-7------------------------------------------|


Intro Riff#2: 2x
E|------------------------------------------------------|
H|------------------------------------------------------|
G|------------------------------------------------------|
D|------------------------------------------------------|
A|-------5~---------5~-----------------5~----------5~---|
E|-5-6-7----7-5-6-7----7-5-6-7--5-6-7-----7-5-6-7-----7~|





==CHORDS=================================================

     G5             H5             A5             D5

E|---------|X  E|---------|X  E|---------|X  E|---------|X
H|---------|X  H|---------|X  H|---------|X  H|---------|X
G|---------|X  G|---------|X  G|---------|X  G|----7----|
D|----5----|   D|----9----|   D|----7----|   D|----7----|
A|----5----|   A|----9----|   A|----7----|   A|--5------|
E|--3------|   E|--7------|   E|--5------|   E|---------|X

    G#5            H#5

E|---------|X  E|---------|X
H|---------|X  H|---------|X 
G|---------|X  G|---------|X  
D|----6----|   D|----8----|  
A|----6----|   A|----8----|
E|--4------|   E|--6------| 



==VERSE/CHORUS/BRIDGE==================================== 


   =====VERSE 1:

   H5          G5
   Verschüttete Träume

   D5            A5        A5-G#5-A5-H#5-H5
   Bilder aus alten Tagen

   H5                 G5
   Vom Wahnsinn den ich lebte

   D5                   A5      A5-G#5-A5-H#5-H5
   Und was sie mir heute sagen

   H5             G5
   Ich schlief zu wenig

   D5            A5      A5-G#5-A5-H#5-H5
   Und ich trank zuviel

   H5               G5             
   Die Schmerzen im Kopf

             D5           A5
   War'n ein vertrautes Gefühl


   =====CHORUS:

                   H5
   Ich trinke auf

            G5
   Auf gute Freunde

   D5        A5
   Verlorene Liebe

   H5       G5
   Auf alte Götter

   D5           A5
   Und auf neue Ziele

           H5            G5
   Auf den ganz normalen Wahnsinn

   D5                 A5
   Auf das was einmal war

    H5               G5
   Darauf das alles endet

   D5               A5
   Und auf ein neues Jahr. (- auf ein neues Jahr)


(PLAY THE INTERLUDE AS INTRO RIFF#2)


   =====VERSE 2:

   H5      G5
   Blutige Küsse

   D5      A5      A5-G#5-A5-H#5-H5
   Bittere Pillen

   H5             G5
   Vom Schicksal gefickt

   D5                A5     A5-G#5-A5-H#5-H5
   Und immer drei Promille


   H5               G5
   Ich war Teil der Lösung

   D5               A5       A5-G#5-A5-H#5-H5
   Und mein größtes Problem

   H5            G5
   Ich stand vor mir

      D5                  A5
   Und konnte mich nicht seh'n


(1x CHORUS)


   =====BRIDGE:

   G5           A5
   Das Gras war grüner

   D5         H5
   Die Linien schneller

   G5           A5
   Der Reiz war größer

         H5           H5
   Und die Nächte waren länger

   G5        A5
   Alles Geschichte

                D5             H5
   Und ich bin froh, daß es so ist

          G5              A5
   Oder glaubst Du es ist schön

                H5      H5
   Wenn man Scheiße frißt


(PLAY THE SOLO HERE: TABS BELOW)


   =====VERSE 3:


   H5        G5
   Alles nur Splitter

      D5               A5     A5-G#5-A5-H#5-H5
   Im Treibsand meiner Seele

   H5           G5   D5        A5     A5-G#5-A5-H#5-H5
   Nur wenige Momente in einem Leben

   H5                    G5
   Ich höre himmlisches Gelächter

              D5              A5     A5-G#5-A5-H#5-H5
   Wenn ich dran denke, wie ich war

           H5             G5
   An das Rätsel, daß ich lebte

           D5                 A5
   Und den Gott, den ich nicht sah


(3x CHORUS)


(PLAY THE INTRO RIFF#2 TWO TIMES AS OUTRO)



==SOLO===================================================



E|------------------------------------------------------|
H|------------------------------------------------------|
G|------------------------------------------------------|
D|---------------------------4-2---2--------2-----------|
A|-2-5-2-4-2-5-2-2-5-2-4-2-5-----5---4--4-5---5-4-5-----|
E|------------------------------------------------------|


E|------------------------------------------------------|
H|------------------------------------------------------|
G|------------------------------------------7-----------|
D|---------------------------4-2-4-5/7--7-9---9-7-9-----|
A|-2-5-2-4-2-5-2-2-5-2-4-2-5----------------------------|
E|------------------------------------------------------|


E|-7--------7-------------------------------------------|
H|-10pb12---10pb12--10b12--10--7------------------------|
G|-------------------------------9-7-9--9b11--9-7--9b11-|
D|------------------------------------------------------|
A|------------------------------------------------------|
E|------------------------------------------------------|


E|---7--------------------------------------------------|
H|-7---7-----------------12p10----10h12p10----10h12p10--|
G|--------9b11--9-7-7----------11----------11-----------|
D|------------------------------------------------------|
A|------------------------------------------------------|
E|------------------------------------------------------|


E|------------------------------------------------------|
H|----10h12p10----10-----17p15----15h17p15-----15h17p15-|
G|-11----------11--------------16----------16-----------|
D|------------------------------------------------------|
A|------------------------------------------------------|
E|------------------------------------------------------|


E|----------------------10/14-14\12-12\10-10\9-9/10/12\-|
H|--- 15h17p15----15------------------------------------|
G|-16----------16---------------------------------------|
D|------------------------------------------------------|
A|------------------------------------------------------|
E|------------------------------------------------------|


==SYBOLS=================================================

p  -  pull off
h  -  hammer on
b  -  bend
pb -  pre bend
/  -  slide on
\  -  slide off
~  -  Tremolo / Vibrato
Tap to rate this tab
 
# A B C D E F G H I J K L M N O P Q R S T U V W X Y Z