Song name
# A B C D E F G H I J K L M N O P Q R S T U V W X Y Z

Boehse Onkelz - Bomberpilot tab

Help us improve GuitareTab! Take a short survey!
Hey Everybody!
Congratulation! This song rulez! And It's easy to play !
Here we go ...
intro/verse
|-------------------------|
|-------------------------|
|-55-------------55-------|
|-55-55-77-22-3--55-55-77-|
|-33-55-77-22-3--33-55-77-|
|----33-55-00-1-----33-55-|

chorus                    (play this after chorus 4 times)
|-----------------------  |---------------------|
|-----------------------  |---------------------|
|---------5-------------  |-3-0303--------------|
|-7---3---5---2---------  |--------5-777777-----|
|-7---3---3---2---------  |--------5-777777-----|
|-5---1-------0---------  |--------3-555555-----|

solo
|----------5-------------5--5-----------|
|------------5---8------5--5------------|
|----5-b7----------5---7--7--75-----b2--|
|--7------------------------------------|
|---------------------------------------|
|--------------------------------0------|

|----------------------------------------------------------|
|---------------------------17-20-22-22-22-20-17-----------|
|-21-21-21-21-21-19-15---------------------------b19-17----|
|----------------------19-------------------------------19-|
|----------------------------------------------------------|
|----------------------------------------------------------|

|----------------------------------------------------------|
|-17-17-17-20-17-17-17-20-17-17----------------------------|
|------------------------------------17--19----------------|
|--------------------------------19----------19-17-18-18---|
|----------------------------------------------------------|
|----------------------------------------------------------|

|---------------------|
|-------5--------5----|
|---5--7-75---5-7-75--|
|--7---------7--------|
|---------------------|
|---------------------|

That's it!to play it correct, you play
intro 1x
verse 4x
chorus 2x
verse 4x
chorus 2x
solo 1x
chorus 4x
Related for Bomberpilot tab