Guitaretab - guitar tabs
Song name
# A B C D E F G H I J K L M N O P Q R S T U V W X Y Z

Boehse Onkelz - Terpetin tab

Boehse Onkelz
"Terpetin"
Album : "Viva Los Tioz"
tuning: e,a,d,g,b,e
written by boehse Onkelz
tabbed by limpi

melody:
|-----------------------------------------------------------------|
|-----------------------------------------------------------------|
|-----------------------------------------------------------------|
|-----------------------------------------------------------------|
|-4-3-4---4-3-4-6---4-3-4---4-3-4-6---4-3-4---4-3-4-6-4--3--1-----|
|--------------------------------------------------------------4--|
[ Tab from: http://www.guitaretab.com/b/boehse-onkelz/68858.html ]
|-----------------------------------------------------------------|
|-----------------------------------------------------------------|
|-----------------------------------------------------------------|
|-----------------------------------------------------3-----------|
|-4-3-4---4-3-4-6---4-3-4---4-3-4-6---4-3-4---4-3-4-6----6--4--3--|
|-----------------------------------------------------------------|

verse:
|-------------------|
|-------------------|
|-6----3------------|
|-6----3----4----6--|
|-4----1----4----6--|
|-----------2----4--|

chorus:
|------------------------------|
|------------------------------|
|-666666-333333----------------|
|-666666-333333-444444-666666--|
|-444444-111111-444444-666666--|
|---------------222222-444444--|

outro:
|-9--9--9--9--9---             |-4-4-4-4-4--|
|-9--9--9--9--9---             |-4-4-4-4-4--|
|-10-10-10-10-10--             |-5-5-5-5-5--|
|-11-11-11-11-11--    4 times  |-6-6-6-6-6--|
|-11-11-11-11-11--             |-6-6-6-6-6--|
|-9--9--9--9--9---             |-4-4-4-4-4--|

|-9--9--9--9--9----9--8--6-4---9--|
|-9--9--9--9--9----9--8--6-4---9--|
|-10-10-10-10-10---10-9--7-5---10-|
|-11-11-11-11-11---11-10-8-6---11-|
|-11-11-11-11-11---11-10-8-6---11-|
|-9--9--9--9--9----9--8--6-4---9--|

That's it , have fun ...
Related for Terpetin tab
Terpetin chords by Boehse Onkelz