Song name
# A B C D E F G H I J K L M N O P Q R S T U V W X Y Z

Boehse Onkelz - Matapalo I tab

chillin on the beach with MATAPALO is great. ;)
here we go:

intro/melodie:
|-----------------------------------------------------------------------|
|-----------------------------------------------------------------------|
|-----3-4-5-4-3------------3-4-5-4-3-3--------3-4-5-4-3-----------------|
|-3-6-----------6-5----3-6----------------3-6-----------6-3---3---------|
|---------------------------------------------------------------3----3-8|
|-----------------------------------------------------------------------|

verse1
|----------------------------------------------------------------------|
|----------------------------------------------------------------------|
|----------------------------------------------------------------------|
|----------------------------------------------------------------5--3--|
|------------------------------1-1-1-4-1-1-1-4-------------------3--1--|
|1-1-4-1-1-1-4-1-1-1-4-1-1-1-4-----------------1-1-1-4-1-1-1-4---------|

solo (2x)
|-13---------------------13-----------------------13-----------------------|
|--------------13-15-16-----16-15-13-----13-15-16----16-15-14--14-18-16-16-|
|----15-15--15------------------------15-----------------------------------|
|--------------------------------------------------------------------------|
|--------------------------------------------------------------------------|
|--------------------------------------------------------------------------|

verse2
|-----------------------|
|-----------------------|
|-5---5---5---5---------|
|---3---2---1---5-6-7---|
|-----------------------|
|-----------------------|
Tap to rate this tab
# A B C D E F G H I J K L M N O P Q R S T U V W X Y Z