Song name
# A B C D E F G H I J K L M N O P Q R S T U V W X Y Z

Boehse Onkelz - Leere Worte tab

Boehse Onkelz
Leere Worte
written by boehse onkelz
tabbed by limpi

melody
|------------------------------------------------------------------------|
|------------------------------------------------------------------------|
|---------2-2--------------------------2-2-----------------2-2-----------|
|-----3-5-----5-3-----3-5----------3-5-----5-3-5-5-3-2---------5-3-------|
|-5-5-------------5-5-----5~---5-5---------------------5~----------5-3-5-|
|------------------------------------------------------------------------|

verse (play palm-muted)
|----------------------------------|
|----------------------------------|
|----------------------------------|
|-99999999555555553333333355555555-
|-77777777333333331111111133333333-
|----------------------------------

interlude
|---------------------|
|---------------------|
|-5--------5---5---5--|
|-5-5555-5-5-5-5-5-5--|
|-3-3333-3-3-3-3-3-3--|
|---------------------|

chorus
|--------------------------------|
|--------------------------------|
|-9-9-xx-9----------7-7-xx-7-3-3-|
|-9-9-xx-9-3-3-xx-3-7-7-xx-7-3-3-|
|-7-7-xx-7-3-3-xx-3-5-5-xx-5-1-1-|
|----------1-1-xx-1--------------|

pre-solo        solo
|--------------|--10---------------------------------------------|
|---------(10)-|------10----------10---------1013~---------------|
|------(10)----|------12b--12b10--10-----1012-------1210--1012---|
|---(10)-------|----------------12---12-----------------12----12-|
|-(7)----------|-------------------------------------------------|
|--------------|-------------------------------------------------|

|---------------------10-12-13-15-17-12--10-|
|-1010--------------------------------------|
|---12b-12b10--1010-------------------------|
|------------12-----------------------------|
|-------------------------------------------|
|-------------------------------------------|
Tap to rate this tab
 
# A B C D E F G H I J K L M N O P Q R S T U V W X Y Z