Song name
# A B C D E F G H I J K L M N O P Q R S T U V W X Y Z

Boehse Onkelz - Heilige Lieder tab

Band: Boehse Onkelz 
Song: Heilige Lieder
Tabber: 1337täbber
Tuning: Standard

PM = Palm Muted
^  = Bend


Intro/Interlude between Vers and Chorus
|------------------------------------------------|
|------------------------------------------------|
|------------------------------------------------|
|-----------------5-4-3--------5---4-4---5---4-4-|
|-3-0-0-3-0-0-3-0-------5-4----3---2-2---3---2-2-|
|------------------------------------------------|


Vers
|-----------------------|
|-----------------------|
|-----5-------2---------|
|-2---3---2---0---------|
|-0-------0-------------|
|-----------------3---4-|

|--------------------------|
|--------------------------|
|-----5--------------------|
|-2---3--------------------|play this 3 times
|-0-------5-5-5-5-55555555-|
|---------3-3-3-3-33333333-|


Chorus
|----------------|
|----------------|
|----------------|
|-5-------2------| play this 3 times
|-3---5---0---3--|
|-----3-------1--|
                         
|-------|-----------------|-----------------|
|-------|-----------------|-----------------|
|-------|-----------------|-----------------|
|-5-----|-2-2-2-2-2-2-2-2-|-2-2-2-2-2-2-2-2-|
|-3---5-|-0-0-0-0-0-0-0-0-|-0-0-0-0-0-0-0-0-|
|-----3-|-----------------|-----------------|
PM            . . . . . .     . . .   . . . 


this is the little Break before the solo starts
|-----------------------------------------------------------|
|-----------------------------------------------------------|
|-----------------------------------------------0--1--2--2^-|
|-------3--2----------0-------------1--0--1--2--------------|
|-0--3----------0--3-----0----0--3--------------------------|
|-----------------------------------------------------------|

can´t figure out the solo. sorry^^
Tap to rate this tab
# A B C D E F G H I J K L M N O P Q R S T U V W X Y Z