Song name
# A B C D E F G H I J K L M N O P Q R S T U V W X Y Z

Boehse Onkelz - Wir Ham Noch Lange Nich Genug tab

Ich denke, dass das die richtige Weise ist, "wir ham' noch lange nich genug" zu spielen

Intro            3x abgedämpft, 1x teilweise abgedämpft, 2x nicht abgedämpft
e|-----------------|-----------------|-----------------|--------------------|
B|---------6---5---|---------6---5---|-----------------|--------------------|
G|-5-5-7-5---5---5-|-5-5-7-5---5---5-|-0-0-5-0-7-0-5-0-|-10-0-9-0-7-0-9-0---|
D|-----------------|-----------------|-----------------|--------------------|
A|-----------------|-----------------|-----------------|--------------------|
E|-----------------|-----------------|-----------------|--------------------|


Verse     2x abgedämpft (endlich wieder..), 1x nicht abgedämpft (wir ham'..)
e|----------------|----------------|
B|----------------|----------------|
G|----------------|----------------|
D|-10---5---7---3-|-10---5---3---3-|
A|-10---5---7---3-|-10---5---3---3-|
E|-8----3---5---1-|-8----3---1---1-|


Bridge
e|---------|---------|---------|---------|---------|---------|---------|
B|---------|---------|---------|---------|---------|---------|---------|
G|---------|---------|---------|---------|---------|---------|---------|
D|---------|---------|---------|---------|---------|---------|---------|
A|---8-7-5-|---8-7-5-|-5-8-7-5-|-8-8-7-5-|---8-7-5-|---8-7-5-|-5-8-7-5-|
E|-5-------|-8-------|---------|---------|-5-------|-8-------|---------|

e|---------|-----------------------------|
B|---------|-----------------------------|
G|---------|-----------------------------|
D|----9--5-|-7-7-7-7-7-7-7-7-7-7-7-7-9-5-|
A|-8--9--5-|-7-7-7-7-7-7-7-7-7-7-7-7-9-5-|
E|----7--3-|-5-5-5-5-5-5-5-5-5-5-5-5-7-3-|

e|---------------------------------|
B|---------------------------------|
G|---------------------------------|
D|-7-7-7-7-7-7-7-7-7-7-7-7-7-7-7-7-|
A|-7-7-7-7-7-7-7-7-7-7-7-7-7-7-7-7-|
E|-5-5-5-5-5-5-5-5-5-5-5-5-5-5-5-5-|


Verse       1x abgedämpft (wo Genie und..), 1x nicht abgedämpft (wir ham'..)
e|----------------|----------------|
B|----------------|----------------|
G|----------------|----------------|
D|-10---5---7---3-|-10---5---3---3-|
A|-10---5---7---3-|-10---5---3---3-|
E|-8----3---5---1-|-8----3---1---1-|

Bridge
e|---------|---------|---------|---------|---------|---------|---------|
B|---------|---------|---------|---------|---------|---------|---------|
G|---------|---------|---------|---------|---------|---------|---------|
D|---------|---------|---------|---------|---------|---------|---------|
A|---8-7-5-|---8-7-5-|-5-8-7-5-|-8-8-7-5-|---8-7-5-|---8-7-5-|-5-8-7-5-|
E|-5-------|-8-------|---------|---------|-5-------|-8-------|---------|

e|-------|
B|-------|
G|-------|
D|---9-5-|
A|-8-9-5-|
E|---7-3-|


Solo 1.Part
e|-------------------------|------------------------|-------------|
B|-----------------------8-|-10-8----8--------------|-------------|
G|-----------------9-7-9---|------10---10-----------|----7-9-7----|
D|-10-10------7-10---------|--------------9-7-------|-10-------10-|
A|-10------10--------------|------------------10----|-------------|
E|-8-----------------------|---------------------10-|-------------|

e|----------------|
B|----------------|
G|---------9-7----|
D|----7-10-----10-|
A|-10-------------|
E|----------------|


Solo 2.Part
e|-----------------|----------------------|
B|-------8---------|-------20-------------|
G|-5-7~9---7~9~7-5-|-19~21----19~21~19-17-|
D|-----------------|----------------------|
A|-----------------|----------------------|
E|-----------------|----------------------|


Intro                                                                     2x
e|-----------------|-----------------|-----------------|--------------------|
B|---------6---5---|---------6---5---|-----------------|--------------------|
G|-5-5-7-5---5---5-|-5-5-7-5---5---5-|-0-0-5-0-7-0-5-0-|-10-0-9-0-7-0-9-0---|
D|-----------------|-----------------|-----------------|--------------------|
A|-----------------|-----------------|-----------------|--------------------|
E|-----------------|-----------------|-----------------|--------------------|


Chorus           1x nicht abgedämpft (wir ham'..)
e|----------------|----------------|
B|----------------|----------------|
G|----------------|----------------|
D|-10---5---7---3-|-10---5---3---3-|
A|-10---5---7---3-|-10---5---3---3-|
E|-8----3---5---1-|-8----3---1---1-|


Bridge
e|---------|---------|---------|---------|---------|---------|---------|
B|---------|---------|---------|---------|---------|---------|---------|
G|---------|---------|---------|---------|---------|---------|---------|
D|---------|---------|---------|---------|---------|---------|---------|
A|---8-7-5-|---8-7-5-|-5-8-7-5-|-8-8-7-5-|---8-7-5-|---8-7-5-|-5-8-7-5-|
E|-5-------|-8-------|---------|---------|-5-------|-8-------|---------|

e|---------|-----------------------------|
B|---------|-----------------------------|
G|---------|-----------------------------|
D|----9--5-|-7-7-7-7-7-7-7-7-7-7-7-7-9-5-|
A|-8--9--5-|-7-7-7-7-7-7-7-7-7-7-7-7-9-5-|
E|----7--3-|-5-5-5-5-5-5-5-5-5-5-5-5-7-3-|

e|---------------------------------|
B|---------------------------------|
G|---------------------------------|
D|-7-7-7-7-7-7-7-7-7-7-7-7-7-7-7-7-|
A|-7-7-7-7-7-7-7-7-7-7-7-7-7-7-7-7-|
E|-5-5-5-5-5-5-5-5-5-5-5-5-5-5-5-5-|


Verse          1x abgedämpft (endlich..), 2x nicht abgedämpft ( wir ham'..)
e|----------------|----------------|
B|----------------|----------------|
G|----------------|----------------|
D|-10---5---7---3-|-10---5---3---3-|
A|-10---5---7---3-|-10---5---3---3-|
E|-8----3---5---1-|-8----3---1---1-|

Bridge
e|---------|---------|---------|---------|---------|---------|---------|
B|---------|---------|---------|---------|---------|---------|---------|
G|---------|---------|---------|---------|---------|---------|---------|
D|---------|---------|---------|---------|---------|---------|---------|
A|---8-7-5-|---8-7-5-|-5-8-7-5-|-8-8-7-5-|---8-7-5-|---8-7-5-|-5-8-7-5-|
E|-5-------|-8-------|---------|---------|-5-------|-8-------|---------|

e|---------|-----------------------------|
B|---------|-----------------------------|
G|---------|-----------------------------|
D|----9--5-|-7-7-7-7-7-7-7-7-7-7-7-7-9-5-|
A|-8--9--5-|-7-7-7-7-7-7-7-7-7-7-7-7-9-5-|
E|----7--3-|-5-5-5-5-5-5-5-5-5-5-5-5-7-3-|

e|-----------------------------|
B|-----------------------------|
G|-----------------------------|
D|-7-7-7-7-7-7-7-7-7-7-7-7-9-5-|
A|-7-7-7-7-7-7-7-7-7-7-7-7-9-5-|
E|-5-5-5-5-5-5-5-5-5-5-5-5-7-3-|

e|-----------------------------|
B|-----------------------------|
G|-----------------------------|
D|-7-7-7-7-7-7-7-7-7-7-7-7-9-5-|
A|-7-7-7-7-7-7-7-7-7-7-7-7-9-5-|
E|-5-5-5-5-5-5-5-5-5-5-5-5-7-3-|

e|-----------------------------|
B|-----------------------------|
G|-----------------------------|
D|-7-7-7-7-7-7-7-7-7-7-7-7-9-5-|
A|-7-7-7-7-7-7-7-7-7-7-7-7-9-5-|
E|-5-5-5-5-5-5-5-5-5-5-5-5-7-3-|


Viel spaß beim spielen,
Guitar Grizzly
Tap to rate this tab
# A B C D E F G H I J K L M N O P Q R S T U V W X Y Z