Song name
# A B C D E F G H I J K L M N O P Q R S T U V W X Y Z

Boehse Onkelz - Ich Lieb Mich tab

Intro:

e |--------------------------------------------------------------------|
h |--------------------------------------------------------------------|
G |--------------------------------------------------------------------|
D |-6-6--9-9--4------6-6--9-9--6-6--9-9--6-6--9-9--4-4-4---------------| 
A |-4-4--7-7--2-(2x)-4-4--7-7--4-4--7-7--4-4--7-7--2-2-2---------------|
E |--------------------------------------------------------------------|


Verse:

e |--------------------------------------------------------------------|
h |--------------------------------------------------------------------|
G |--------------------------------------------------------------------|
D |-6-6-6-6-6-6-6-6--9-9-9-9-9-9-9-9--4-4-4-4-4-4-4-4--6-6-6-6-6-------|
A |-4-4-4-4-4-4-4-4--7-7-7-7-7-7-7-7--2-2-2-2-2-2-2-2--4-4-4-4-4-(2x)--|
E |--------------------------------------------------------------------|

Refrain:

e |--------------------------------------------------------------------|
h |--------------------------------------------------------------------|
G |--------------------------------------------------------------------|
D |-6-6--9-9--4------6-6--9-9--6-6--9-9--6-6--9-9--4-4-4---------------| 
A |-4-4--7-7--2-(2x)-4-4--7-7--4-4--7-7--4-4--7-7--2-2-2---------------|
E |--------------------------------------------------------------------|

Hoffe ich hab keine Fehler gemacht.
Das Lied iss super einfach.

Leider hab ich keine Ahnung wie das Solo geht habs nirgends gefunden würde mich freuen 
das mal einer tabt !!!

BO 4 EVAAAA !!!!
Tap to rate this tab
# A B C D E F G H I J K L M N O P Q R S T U V W X Y Z