Song name
# A B C D E F G H I J K L M N O P Q R S T U V W X Y Z

Boehse Onkelz - Wie Tief Willst Du Noch Sinken tab

Help us improve GuitareTab! Take a short survey!
Intro:


E|-------------------------------x-x-10--10--x-x-x-x-------|
B|-9b-9r-7-9b-9b--9b-9r-7--------x-x-13b-13b-x-x-x-x-7-----|
G|-9b-9r-7-9b-9b--9b-9r-7----7v--x-x---------x-x-x-x-7-----|
D|------------------------9v-----x-x---------x-x-x-x---9v--|
A|-------------------------------x-x---------x-x-x-x-------|
E|---------------------------------------------------------|

E|------------------------------7--------7----7-----7-----------------|
B|-9b-9r-9-7---7----9b-9r-9-7------------10b--10b---10b-10-7----------|
G|-9b-9r-9-7---7----9b-9r-9-7--------------------------------9-7------|
D|-----------9----------------9----------------------------------9v\--|
A|--------------------------------------------------------------------|
E|--------------------------------------------------------------------|

Hier setzt die Verse ein (0:12)


E|-x-x---------------7b--------x-x-x-x-x-x-x-x---x-x-------------------|
B|-x-x-9b-9r-9b-9r-------------x-x-x-x-x-x-x-x---x-x---------------7v--|
G|-x-x-9b-9r-9b-9r-------------x-x-x-x-x-x-x-x-7-x-x-7------7-9b-7-----|
D|-x-x-------------9-----------x-x-x-x-x-x-x-x-7-x-x-7-12p9------------|
A|-x-x-------------------------x-x-x-x-x-x-x-x---x-x-------------------|
E|---------------------------------------------------------------------|

(0:00) Das Intro.... wird ab der gekennzeichneten Stelle von der Verse begleitet


Verse:

E|---------------------------------------------------|
B|---------------------------------------------------|
G|---------------------------------------------------|
D|-7-7-7-7-9-9--7-7-7-7-5-5--7-7-7-7-12-12--7-7-7-5--|
A|-7-7-7-7-9-9--7-7-7-7-5-5--7-7-7-7-12-12--7-7-7-5--|
E|-5-5-5-5-7-7--5-5-5-5-3-3--5-5-5-5-10-10--5-5-5-3--|

(0:12) Die Verse wird 4 mal gespielt. Beim 3 mal erst mit Gesang.

Text:

Dein Geist ist schwach, Du verlierst Deine Macht
Dein letztes bißchen Ehre,  alles, was Du hast
Ich zünd 'ne Kerze für Dich an,
Vielleicht erhellt sie Deinen Geist,
Vielleicht zeigt sie Dir Dinge, von denen Du nichts weißt

Pre-Chorus:


E|--------|
B|--------|
G|--------|
D|-11/12--|
A|-11/12--|
E|-9-/10--|

(1:02) Die Einleitung zum Chorus

Chorus:


E|------------------------------------------------------------------------|
B|------------------------------------------------------------------------|
G|------------------------------------------------------------------------|
D|-9--9-9-9--9-9--9-9/12---9--9-9-9--9-9--9-9/12---5--5-5-5--5-5--5-5/12--|
A|-9--9-9-9--9-9--9-9/12---9--9-9-9--9-9--9-9/12---5--5-5-5--5-5--5-5/12--|
E|-7--7-7-7--7-7--7-7/10---7--7-7-7--7-7--7-7/10---3--3-3-3--3-3--3-3/10--|

E|------------------|-------|
B|------------------|-------|
G|------------------|-------|
D|-7--7-7-7--7-7--7-|-7/12--|
A|-7--7-7-7--7-7--7-|-7/12--|
E|-5--5-5-5--5-5--5-|-5/10--|

(1:02) Wird 3 mal gespielt... Beim 3 mal wird die gekennzeichnete Stelle nicht mehr 
und geht gleich in die Verse über!

Text:

Wie tief willst Du noch sinken ? Wie lange Dich belügen ?
Wie viel´ Tode willst Du sterben ? Wie oft Dich selbst betrügen ?
Ja, diese Worte sind kraß, verletzend und laut
Doch nur wenn man schreit, weckt man Tote auf, Tote auf !

Verse:

(1:38) wird 3 mal gespielt. Beim 2 mal setzt der Gesang ein.

Text:

Du Unterwirfst Dich den Großen und trittst nach den Kleinen
Du benimmst Dich wie Scheiße auf zwei Beinen
Mann, mußt Du ein Arschloch sein, und ich weiß nicht was noch
Ein Arschloch so groß wie ein verdammtes schwarzes Loch

Pre-Chorus:

(2:16) wird 1 mal gespielt

Chorus:

(2:17) Wird 3 mal gespielt... Beim 3 mal wird die gekennzeichnete Stelle nicht mehr 
und geht gleich in die Verse über!

Text:

Wie tief willst Du noch sinken ? Wie lange Dich belügen ?
Wie viel´ Tode willst Du sterben ? Wie oft Dich selbst betrügen ?
Ja, diese Worte sind kraß, verletzend und laut
Doch nur wenn man schreit, weckt man Tote auf, Tote auf !

Verse:

(2:54) wird 3 mal gespielt. Begleitet wird die Verse durch das Solo.

Pre-Chorus:

(2:30) wird 1 mal gespielt. Begleitung vom Solo

Chorus:

(2:31) Wird 2 mal gespielt Begleitung vom Solo

Solo:

E|------------------|-----------------------------------------------------|
B|-9b-9b-9br-7-9-7--|------12------12--12p10------------------------------|
G|-9b-9b-9br-7-9-7--|-9h11----9h11-----------11--11p9-----9p7---9p7---7v--|
D|------------------|---------------------------------12------9-----9-----|
A|------------------|-----------------------------------------------------|
E|------------------|-----------------------------------------------------|

E|----7--------------------------------------------------|
B|----7--------------------------------------------------|
G|-9b----------------------------9-7---9-7---9-7---7-7v--|
D|-----------------------------9-----9-----9-----9-------|
A|-------9-7-------------8br-7---------------------------|
E|-----------10-7-7-7-10---------------------------------|

   Gedämpt:      .....

E|-10p7----10p7----7h10p7----7h10p7----10p7----10p7----7h10p7----7h10p7----|
B|------10------10--------10--------10------10------10--------10--------10-|
G|-------------------------------------------------------------------------|
D|-------------------------------------------------------------------------|
A|-------------------------------------------------------------------------|
E|-------------------------------------------------------------------------|


E|----------------------------------------------|
B|----------------------------------------------|
G|-11p9h11p9-7h9p7---7--------------------------|
D|-----------------9---9p7h9p7------------------|
A|-----------------------------9p7h9-7-5--------|
E|---------------------------------------7-5-7--|

E|-------------------7-------------------------------7-----------|
B|-------7-----------7--10p7---7--------7--------------7-10-10b--|
G|---7h9---7b---7-9b---------9---9--7h9---7b----7-9b-------------|
D|-9----------9-------------------------------9------------------|
A|---------------------------------------------------------------|
E|---------------------------------------------------------------|

Das einen Takt lang wiederholen

E|------------------------------------------------------------------------|
B|--------------------------------------------------10p7h10p7*------------|
G|------------------------------6h7--6h7--6h7--6h7------------------------|
D|-7-8-9--7-8-9--7-8-9--7-8-9---------------------------------------------|
A|------------------------------------------------------------------------|
E|------------------------------------------------------------------------|


E|--------------------------------|
B|--10p7h10p7*--------------------|
G|-------------9br-7-9-7----------|
D|-----------------------9-7-9----|
A|--------------------------------|
E|--------------------------------|
    ...........................                                                Hier 
der Pre-Chorus ein

E|-----------------------------------------------|-------------------------|
B|-21b-21b-21br-19-21-19--22b-22b-22br-19-22-22b-|-22b-22-19---------------|
G|-21b-21b-21br-19-21-19-------------------------|-----------21-19-21p19---|
D|-----------------------------------------------|-----------------------21|
A|-----------------------------------------------|-------------------------|
E|-----------------------------------------------|-------------------------|

Hier setzt der Chorus ein... die Stelle muss richtig DICK kommen.

E|-----------------------|--------19---------------------------------|
B|-----------------------|-----19----22-19-----19-22-19-17h19p17-15--|
G|-21p19----19-----------|-21b-------------21b-----------------------|
D|-------21----21-19-21--|-------------------------------------------|
A|-----------------------|-------------------------------------------|
E|-----------------------|-------------------------------------------|

E|----------------------------------|--------------------------19-22-22b-22|
B|----------------------------------|-22b-22b-22-19-22-22b-22b-------------|
G|21-19-18-19-21-19--21-19-18-19-21-|--------------------------------------|
D|----------------------------------|--------------------------------------|
A|----------------------------------|--------------------------------------|
E|----------------------------------|--------------------------------------|

E|-19-----------------------------19b--|
B|----22-19-22-22b--22br-19------------|
G|--------------------------21p19------|
D|-------------------------------------|
A|-------------------------------------|
E|-------------------------------------|

Chorus:

(2:17) Wird 2 mal gespielt. (Den Chorus vom Solo einfach weiterspielen). Danach geht’s 
gewohnt in die Verse über

Text:

Wie tief willst Du noch sinken ? Wie lange Dich belügen ?
Wie viel´ Tode willst Du sterben ? Wie oft Dich selbst betrügen ?
Ja, diese Worte sind kraß, verletzend und laut
Doch nur wenn man schreit, weckt man Tote auf, Tote auf !

Verse:

(2:54) wird 4 mal gespielt. Der Gesang setzt beim 2 mal ein. Die letzten 2 male werden 
Begleitung des Basses und des Schlagzeugs gespielt.

Text:

Schlafe weiter Deinen traumlosen Schlaf

So das wars iss ganz schön schwer !!
Related for Wie Tief Willst Du Noch Sinken tab