Song name
# A B C D E F G H I J K L M N O P Q R S T U V W X Y Z

Boehse Onkelz - Das Problem Bist Du tab

Help us improve GuitareTab! Take a short survey!
-------------------------------------------------------------------------------
			     Das Problem bist du - Boehse Onkelz
-------------------------------------------------------------------------------
Tabbed by:commonod
Email:wolfi.11@hotmail.com


This is the way, i play it, and i'm sure that it is correct.
PLEASE RATE!

Tuning:EADGBe

Intro:
e|-------------------------------|
B|-------------------------------|
G|-------5-5---7-7---5-5-5-------|
D|-2-2---5-5---7-7---5-5-5-------|
A|-2-2---3-3---5-5---3-3-3-------|
E|-0-0---------------------------|


Vers:
e|----------------------------------------|
B|----------------------------------------|
G|-----------5--5-5----7-7----5--5-5-5----|
D|-2--2-2----5--5-5----7-7----5--5-5-5----|
A|-2--2-2----3--3-3----5-5----3--3-3-3----|
E|-0--0-0---------------------------------|
 P.M.|---| P.M.|---|P.M.|-| P.M.|-----|


Chorus
e|----------------------------|
B|-12-12-9-9--10--------------|
G|---------------11--9------9-|
D|-------------------12-------|
A|----------------------------|
E|----------------------------|

Maybe the Solo will come later :)


===============================================================================
Related for Das Problem Bist Du tab