Song name
# A B C D E F G H I J K L M N O P Q R S T U V W X Y Z

Boehse Onkelz - Ich Bin In Dir Live tab

Intro Solo:
|---0-0-3-5-6-5-3-5-3---3---12-10----10----10----12-12-12-10----10------------------------------|
|-3-------------------3---3-------12----12----12-------------12----12-10-8-10-8---8-------------|
|-------------------------------------------------------------------------------9---9-7-7-4-7/9-|
|-----------------------------------------------------------------------------------------------|
|-----------------------------------------------------------------------------------------------|
|-----------------------------------------------------------------------------------------------|

Hintergrund Gitarre (wiederholt sich andauernd)
|---------------------------------|
|---------0-----------------------|
|-------0---0---------------------|
|-----2-------2-------0-------0---|
|---2-----------2---0---0---0---0-|
|-0---------------3-------2-------|
Tap to rate this tab
# A B C D E F G H I J K L M N O P Q R S T U V W X Y Z