Guitaretab - guitar tabs
Song name
# A B C D E F G H I J K L M N O P Q R S T U V W X Y Z

Bohemia Suburbana - En El Jardin Live tab

-------------------------------------------------------------------------------
			     En el jardin (live) - Bohemia Suburbana
-------------------------------------------------------------------------------
Tabbed by: Jonsatan
Email: jon_axo@yahoo.com

Tuning: E-A-D-G-B-e

Intro:

e|---0--------0--------5----------|
B|---2--------0--------5----------|
G|---2--------0--------7----------|
D|---0--------0--------7----------|
A|---0--------5--------5----------|
E|------------x--------5----------|

[ Tab from: http://www.guitaretab.com/b/bohemia-suburbana/80213.html ]
  UUUuuuuuhhh....      UUUuuuuhh...
e|---0--------0--------5----------|
B|---2--------0--------5----------|
G|---2--------0--------7----------|
D|---0--------0--------7----------|
A|---0--------5--------5----------|
E|------------x--------5----------|

Verse and Chorus :

   han pasado varios aņos...
e|---0------------------0--------5----------|
B|---2------------------0--------5----------|
G|---2------------------0--------7----------|
D|---0------------------0--------7----------|
A|---0------------------5--------5----------|
E|----------------------x--------5----------|


End:

e|---0~~~------------------|
B|---0~~~------------------|
G|---2~~~------------------|
D|---2~~~------------------|
A|---0~~~------------------|
E|-------------------------|


| /  slide up
| \  slide down
| h  hammer-on
| p  pull-off
| ~  vibrato
| +  harmonic
| x  Mute note
===============================================================================
Related for En El Jardin Live tab
Advertisement will be closed in 10 seconds