Song name
# A B C D E F G H I J K L M N O P Q R S T U V W X Y Z

Boikot - El Miro De Berlin tab

Help us improve GuitareTab! Take a short survey!
                            Boikot-el muro de berlin
INTRO:
1 GUITAR:
|-9-9-9-9-7-8-9-|
|-9-9-9-9-7-8-9-|
|---------------|
|---------------|
|---------------|
|---------------|
2 GUITAR:
|-12-9-------|
|------10-9--|
|------------|
|------------|
|------------|
|------------|

|-12-11-9-8-9-8-11-12-|
|---------------------|
|---------------------|
|---------------------|x2
|---------------------|
|---------------------|

|-9-4-5-7-|
|-9-4-5-7-|
|---------|
|---------|
|---------|
|---------|

|-----------------|
|-----------------|
|-----------------|
|-7-6-5-4-5-4-6-7-|
|-----------------|
|-----------------|

|-9-4-5-7-|
|-9-4-5-7-|
|---------|
|---------|
|---------|
|---------|

|-----------------|
|-----------------|
|-----------------|
|-7-6-5-4-5-4-6-7-|
|-----------------|
|-----------------|
solo:
|---------------------------------------------------------------------------------------------|
|----------------------------------------14-14-14-16-17-16-17-14-16-16-16-16-17-19-17-19-16-17|
|-------------------------------------18------------------------------------------------------|
|-14-13-11-10-11-10-13-14-14-16-18-21---------------------------------------------------------|
|---------------------------------------------------------------------------------------------|
|---------------------------------------------------------------------------------------------|

|-----------------------------------------------|
|--------14-12-14-10-12-10-9-10-7-9-5-4-4-5-4-2-|
|-9-11-13---------------------------------------|
|-----------------------------------------------|
|-----------------------------------------------|
|-----------------------------------------------|

|----------------|
|----------------|
|----------------|
|-6-8-9-11-13-14-|
|----------------|
|----------------|
Related for El Miro De Berlin tab