Guitaretab - guitar tabs
Song name
# A B C D E F G H I J K L M N O P Q R S T U V W X Y Z

Boite Zuleika - Cao Muito Mau tab

-------------------------------------------------------------------------------
			     Cão muito mau - Boite Zuleika
-------------------------------------------------------------------------------
Tabbed by:HiPpIe dUdE
Email:besilix@hotmail.com

Tuning:Standard

dis song is played with da same chords all over,though in da first verse/chorus
u should fingerpick it


1st Intro/verse (fingerpicked)

     Em        G        C        ?
e|----0--------3--------8--------7-----------------------------------------|
B|----0--------3--------8--------7-----------------------------------------|
G|----0--------4--------9--------8-----------------------------------------|
D|----2--------5--------10-------9-----------------------------------------|
A|----2--------5--------10-------9-----------------------------------------|
E|----0--------3--------8--------7-----------------------------------------|

1st chorus (fingerpicked)

      C        ?        Em       G        C        ?
e|----8--------7----|---0--------3--------8--------7-----------------------|
B|----8--------7----|---0--------3--------8--------7-----------------------|
G|----9--------8--2x|---0--------4--------9--------8-----------------------|
D|----10-------9----|---2--------5--------10-------9-----------------------|
A|----10-------9----|---2--------5--------10-------9-----------------------|
E|----8--------7----|---0--------3--------8--------7-----------------------|

Verse
[ Tab from: http://www.guitaretab.com/b/boite-zuleika/67897.html ]
     Em        G        C        ?
e|----0--------3--------8--------7-----------------------------------------|
B|----0--------3--------8--------7-----------------------------------------|
G|----0--------4--------9--------8-----------------------------------------|
D|----2--------5--------10-------9-----------------------------------------|
A|----2--------5--------10-------9-----------------------------------------|
E|----0--------3--------8--------7-----------------------------------------|

Chorus

      C        ?        Em                       
e|----8--------7--------0----------|---------------------------------------|
B|----8--------7--------0----------|---------------------------------------|
G|----9--------8--------0--Repeat--|---------------------------------------|
D|----10-------9--------2----------|---------------------------------------|
A|----10-------9--------2----------|---------------------------------------|
E|----8--------7--------0----------|---------------------------------------|

Lyrics

Verse:
A noite está muito muito fria
Corres o risco de apanhar peneumonia
Aparece uma fada e como por magia
Agita uma varinha e transforma a noite em dia

Chorus:
Sou um cão muito mau
Porque não me dão afecto
Mas se me mexem no pilau
Dou pulinhos até chegar ao tecto.
Dou pulinhos até chegar, dou pulinhos até chegar!
Dou pulinhos até chegar ao tectooooo!!!!
Sou um cão muito mauuuu!!

if u hav any kestions just mail me at besilix@hotmail.com,in case u want me to
translate da lyrics or sumthin=p

http://www.boitezuleika.com/

| /  slide up
| \  slide down
| h  hammer-on
| p  pull-off
| ~  vibrato
| +  harmonic
| x  Mute note
===============================================================================
Advertisement will be closed in 10 seconds