Song name
# A B C D E F G H I J K L M N O P Q R S T U V W X Y Z

Boker T - Green Onions tab

This iz the guitar part for Green Onions, from a famous blues band.It sounds pretty good distorted.
I will work out the solo for it soon.
Have Fun-_-
Fender*

times 4 x4    |times 2 x2  |times 2 x2  |
E|------------|------------|------------|------------|------------|
B|------------|------------|------------|------------|------------|repeat
G|------------|------------|------------|------------|------------|(back to 
D|------------|-----------1|------------|-----------3|-----------4|start)
A|-----------1|-1-1-1--4---|-----------1|-3-3-3--6---|-1-1-1--4---|
E|-1-1-1--4---|------------|-1-1-1--4---|------------|------------|

Solo:
(b)-Bend

  x2
E|---------------------------|-------------------------|
B|---------------------------|-----------2----4--2-----|
G|-----------1-----3---1-----|-3-3----3-----3-------3-3|
D|-3-3----3-----3---------3-3|-------------------------|
A|---------------------------|-------------------------|
E|---------------------------|-------------------------|

E|---------------------------|
B|---------------------------|
G|-----------1-----3---1-----|
D|-3-3----3-----3---------3-3|
A|---------------------------|
E|---------------------------|
  
E|-----------------------------------------------------|
B|-----------------------------------------------------|
G|----6--8---8b-8b--6---------8-8---6------------------|
D|-8-------------------8---8-----------8---6--8-8------|
A|-----------------------------------------------------|
E|-----------------------------------------------------|
Tap to rate this tab
 
# A B C D E F G H I J K L M N O P Q R S T U V W X Y Z