Song name
# A B C D E F G H I J K L M N O P Q R S T U V W X Y Z

Bolt Thrower - Anti-tank Dead Armour tab

Song: Anti-Tank (Dead Armour)
Band: Bolt Thrower
Album: Those Once Loyal
Tabbed By Dave Siddons (farmer_siddons@hotmail.com)
Tuning: C# F# B E G# C# (1.5 Steps Down)


Intro/Bridge
|--------------|
|--------------|
|--------------|
|--7-10-7--9---|
|--5--8-5--7---|
|--------------|

Main Riff
|--------------------------------|-----------------------------|
|--------------------------------|-----------------------------|
|--------------------------------|-----------------------------|
|--------------------------------|----------------7-10-7--9----|
|--------------------------------|----------------5--8-5--7----|
|--0-0-0-0-0-0-0-1---0-0-0-0-0-3-|-0-0-0-0-0-0-0---------------|

Chorus/Bridge
|-------------------------------|------------------------------|
|-------------------------------|------------------------------|
|-------------------------------|------------------------------|
|-------------------------------|------------------------------|
|-------------------------------|------------------------------|
|--3--0-0-0-0-0-4---0-0-0-0-0-3-|-----0-0-0-0-0-1---0-0-1-4-1--|

Outro
|--------------------------------------------------|
|--------------------------------------------------|
|--------------------------------------------------|
|--------------------------------------------------|
|-----------------------------------------/8-------|
|--0--0--0--0--0--0--0--0h1h4p1p0------0-------7\--|
Tap to rate this tab
# A B C D E F G H I J K L M N O P Q R S T U V W X Y Z