Song name
# A B C D E F G H I J K L M N O P Q R S T U V W X Y Z

Bolt Thrower - Eternal War tab

                    BOLT THROWER - Eternal War
                from 'Realm of Chaos' album (1989)



Tuning - Standard A [ A D G C E A ]
(I think this part is also playable in Drop A tuning)

Riff 1

1|-------------------------|-------------------------|
2|-------------------------|-------------------------|
3|-------------------------|-------------------------|
4|-------------------5h6p5-|-------------------------|
5|-------7h8p7-------------|-------7h8p7-5h7p5-3h5p3-|
6|-0-000-------0-000-------|-0-000-------------------|

Riff 2

1|--------------------------|--------------------------|
2|--------------------------|--------------------------|
3|--------------------------|--------------------------|
4|--------------------5h6p5-|--------------------------|
5|--------7h8p7-5h7p5-------|--------7h8p7-5h7p5-3h5p3-|
6|-0-000--------------------|-0-000--------------------|

That's all I have figured out so far. Stay heavy!
Tap to rate this tab
 
# A B C D E F G H I J K L M N O P Q R S T U V W X Y Z