Song name
# A B C D E F G H I J K L M N O P Q R S T U V W X Y Z

Bolt Thrower - Final Revelation tab

Bolt Thrower
Final Revelation
War Master
Tabbed By Kevin Cruz


I did the best i can do

Tune all strings down one whole step

D:---------------|---------------|---------------|---------------|----------|
A:---------------|---------------|---------------|---------------|----------|
F:---------------|---------------|---------------|---------------|----------|
G:------------2--|------------2--|------------2--|------------5--|-4(1/4)x--|
C:------------2--|------------2--|------------2--|------------5--|----------|
D:--1-3--0-2--0--|--1-3--0-2--0--|--1-3--0-2--0--|--1-3--0-2--3--|----------|

D:---------------------------|---------------------------|------|
A:---------------------------|---------------------------|------|
F:---------------------------|---------------------------|------|
G:---------------------------|---------------------------|--6x--|
C:---------------------------|---------------------------|------|
D:--00-22-00-22-11-33-11-33--|--00-22-00-22-11-33-11-33--|------|

That how much i've figured out
Tap to rate this tab
# A B C D E F G H I J K L M N O P Q R S T U V W X Y Z