Song name
# A B C D E F G H I J K L M N O P Q R S T U V W X Y Z

Bolt Thrower - When Cannons Fade tab

down tune to D flat

x8
|-----------------------------------------------------------------------------|
|-----------------------------------------------------------------------------|
|-----------------------------------------------------------------------------|
|-----------------------------------------------------------------------------|
|-----------------------------------------------------------------------------|
|--1p-0-0-0-0-0-0-0-1p-0-0-0-0-0-0-0-1p-0-0-0-0-0-0-0-13-13-13-13-13-13-13-13-|

x2
|------------------------------------|
|------------------------------------|
|------------------------------------|
|------------------------------------|
|--7-8-7-5-7-8-7-8-7-5-7-8-----------|
|------------------------------------|

x2
|-----------------------------------------------------------------------------|
|-----------------------------------------------------------------------------|
|-----------------------------------------------------------------------------|
|-----------------------------------------------------------------------------|
|-----------------------------------------------------------------------------|
|--1p-0-0-0-0-0-0-0-1p-0-0-0-0-0-0-0-1p-0-0-0-0-0-0-0-13-13-13-13-13-13-13-13-|

x4
|------------------------------------|
|------------------------------------|
|------------------------------------|
|------------------------------------|
|--7-8-7-5-7-8-7-8-7-5-7-8-----------|
|------------------------------------|

x10
|-----------------------------------------------------------------------------|
|-----------------------------------------------------------------------------|
|-----------------------------------------------------------------------------|
|-----------------------------------------------------------------------------|
|-----------------------------------------------------------------------------|
|--0-0-0-0-0-0-0-0-12-0-0-0-0-12-0-0-0-0-12-0-0-0-0-0-0-0-1p-0-0-0-0-13-------|

x2
|--------------------------------------------------------|
|--------------------------------------------------------|
|----------------------7-9-------------------------------|
|--6-7-6-7-9-7-9-10-9-------6-7-6-7-9-7-9-10-9-10-9-10---|
|--------------------------------------------------------|
|--------------------------------------------------------|

x8
|-----------------------------------------------------------------------------|
|-----------------------------------------------------------------------------|
|-----------------------------------------------------------------------------|
|-----------------------------------------------------------------------------|
|-----------------------------------------------------------------------------|
|--0-0-0-0-0-0-0-0-12-0-0-0-0-12-0-0-0-0-12-0-0-0-0-0-0-0-1p-0-0-0-0-13-------|


x2
|--------------------------------------------------------|
|--------------------------------------------------------|
|----------------------7-9-------------------------------|
|--6-7-6-7-9-7-9-10-9-------6-7-6-7-9-7-9-10-9-10-9-10---|
|--------------------------------------------------------|
|--------------------------------------------------------|

solo...make something yourself its far too demanding for me

x4
|-----------------------------------------------------------------------------|
|-----------------------------------------------------------------------------|
|-----------------------------------------------------------------------------|
|-----------------------------------------------------------------------------|
|--7-7-7-7-10-7-7-9--7-7-9-10-9-7--7-7-7-7-10-7-7-9--7-7-9-10-9-7-------------|
|--0-0-0-0----0-0----0-0-----------8-8-8-8----8-8----8-8----------------------|

x3
|--------------------------------------------------------------------------------|
|--------------------------------------------------------------------------------|
|--------------------------------------------------------------------------------|
|--------------------------------------------------------------------------------|
|--------------------------------9-10-9-7-------------------------------9-10-9-7-|
|--0-0-0-0-0-0-0-0-0-0-0-0-0-0-0----------8-8-8-8-8-8-8-8-8-8-8-8-8-8-8----------|

x6
|-----------------------------------------------------------------------------|
|-----------------------------------------------------------------------------|
|-----------------------------------------------------------------------------|
|-----------------------------------------------------------------------------|
|--7-7-7-7-10-7-7-9--7-7-9-10-9-7--7-7-7-7-10-7-7-9--7-7-9-10-9-7-------------|
|--0-0-0-0----0-0----0-0-----------8-8-8-8----8-8----8-8----------------------|

that should about do it Id say that there are a couple of mistakes here and there but 
its ok. if you spot any mistakes try to correct them your self, Im too lazy to correct 
my self.
Tap to rate this tab
 
# A B C D E F G H I J K L M N O P Q R S T U V W X Y Z