Song name
# A B C D E F G H I J K L M N O P Q R S T U V W X Y Z

Bomb The Music Industry - All Alone In My Big Lonely Apartment tab

Highlighted       Show chord diagrams
Verse 1:
E--10--10--7---7-----10--10--7--6---|
B--10--12--7---8-----10--12--7--6---|
G--11--12--7---7-----11--12--7--7---|
D--12--12--9---9-----12--12--9--8---|
A--12--10--9---10----12--10--9--8---|
E--10------7---------10------7--6---|


You got a new medicine
100 movie channels on television.
We can use it as evidence
of why I don't have any more friends.


Chorus:
e--3--5--3--5--3--0---|
B--3--7--3--7--3--0---|
G--4--7--4--7--4--0---|
D--5--7--5--7--5--2---|
A--5--5--5--5--5--2---|
E--3-----3-----3--0---|


(Whistles: A G F#.  A G F# D.)


verse 2:

e--5--3--7--7---5--3--7--6---|
B--7--3--7--8---7--3--7--6---|
G--7--4--7--7---7--4--7--7---|
D--7--5--9--9---7--5--9--8---|
A--5--5--9--10--5--5--9--8---|
E-----3--7---------3--7--6---|

I got a big comfortable couch
that seems a lot bigger when it seats just one.
I got a new video game
and playing on your own is almost fun.

Chorus:
e--3--5--3--5--3--0---|
B--3--7--3--7--3--0---|
G--4--7--4--7--4--0---|
D--5--7--5--7--5--2---|
A--5--5--5--5--5--2---|
E--3-----3-----3--0---|


(Whistles: A G F#.  A G F# D.)
1,000 square feet for the one and only.
Who cares about size when it's big and lonely?


Open Chords: D C Em
Cutting my teeth on the biggest parties.
Who cares about life when it's big and lonely?

Who cares about life when it's big and lonely?
Who cares about life when it's big and lonely?

Who cares about life when it's big and lonely?
Who cares about life when it's big and lonely?
ending chord: Bm
Tap to rate this tab
# A B C D E F G H I J K L M N O P Q R S T U V W X Y Z