Song name
# A B C D E F G H I J K L M N O P Q R S T U V W X Y Z

Bomb The Music Industry - Grudge Report chords

Highlighted       Show chord diagrams
BTMI - Grudge Report

Voicings that I use:

   A  C# D C#7 F#m[1] F#mM7[1] F#m[2] F#mM7[2] B  C#[2] E
E|-------------------------------------------------------------|
B|----6--7------10-----10--------------------------------------|
G|-6--6--7--10--11-----10-------2------2-------8---10----------|
D|-7--6--7--9---11-----11-------4------3-------9---11---2------|
A|-7--4--5--11--9------9--------4------4-------9---11---2------|
E|-5--------9-------------------2------2-------7---9----0------|

A                         C#                 
Contact through computer. Broken guitar. Broken amps and

D                         C#7       
dreams. I felt old a long time ago but now the 

F#m[1]                     F#mM7[1]
rest of the world's gotten older than me.

F#m[2]        F#mM7[2]       D              B
So what's the deal here? Are you too old to get there?

Are you too lazy to get here? Too lazy to even stay in 
touch? No calls inside those walls. 
A simple "how are you" is a little
much to ask of you. So I'll go on without you.

A       C#          D
Take my chances and go it alone.
Take my chances and go it alone.
Take my chances and go it alone.

F#m[1] C#[2]     A
I hate people anyway.

Pile up in a dumpster. Light that match and burn it up and 
run away to somewhere safe. Rubber 
tires are grounded and go from place to place.
You cannot live here. You've already died here.

Take my chances and go it alone.
Take my chances and go it alone.
Take my chances and go it alone.
I hate people anyway.

(play palm muted only the root notes)
A          C#        D               A 
Don't give up on the first thing you believe.
Don't give up on the first thing you believe.
Don't give up on the first thing you believe.
Don't give up on the first thing 
On the first thing you believe.

A C#7 F#m[1] C#[2]

(distortion kicks in)
E|----------------------------------------------------------|
B|----------------------------------------------------------|
G|-777777776666666----------------77777654------------------|
D|-7777777766666664xx4xx4533--333377777654------------------|
A|-5555555544444444xx4xx4533--333355555432------------------|
E|----------------2xx2xx2311--1111--------------------------|

Take my chances and go it alone.
Take my chances and go it alone.
Take my chances and go it alone.
I don't need this shit anyway.

(clean again)

I don't wanna wake up to an alarm clock thinking "Well,
what the fuck. I've done enough.
It's time to stop living and start giving up, yeah." 
I know I'll have to or just go on without you.

Take my chances and go it alone.
Take my chances and go it alone.
Take my chances and go it alone.

F#m[1] C#[2]     A
I hate people anyway.
       C#        D
I hate people anyway.
       A      C# F#m[2] E F#m[2]
I hate people anyway.
Tap to rate this tab
# A B C D E F G H I J K L M N O P Q R S T U V W X Y Z