Song name
# A B C D E F G H I J K L M N O P Q R S T U V W X Y Z

Bomb The Music Industry - Blow Your Brains Out On Live Tv tab

Tabbed by: Jonathan
Email: jonficere@hotmail.com

Tuning: Standard

Verse
e|---------------------|
B|---------------------|
G|-9-9-8-8-8-----------|
D|-9-9-8-8-8-99999999--|
A|-7-7-6-6-6-99999999--|
E|-----------77777777--| x4

Chorus
e|---------------------x-9x-9x-9x-9x-9x-9x-9x-9x--|
B|---------------------x11x11x11x11x11x11x11x11x--|
G|------7777------9999-x11x11x11x11x11x11x11x11x--|
D|-4444-7777-7777-9999-x11x11x11x11x11x11x11x11x--|
A|-4444-5555-7777-7777-x-9x-9x-9x-9x-9x-9x-9x-9x--|
E|-2222------5555---------------------------------| x2

Outro
e|-------------------------------------------------------------------------|
B|-------------------------------------------------------------------------|
G|------7777------9999------7777------9999------7777------9999-------------|
D|-4444-7777-7777-9999-4444-7777-7777-9999-4444-7777-7777-9999-4444444444--|
A|-4444-5555-7777-7777-4444-5555-7777-7777-4444-5555-7777-7777-4444444444--|
E|-2222------5555------2222------5555------2222------5555------2222222222--|

e|--------------|
B|--------------|
G|-9-9-8-8-8----|
D|-9-9-8-8-8-9--|
A|-7-7-6-6-6-9--|
E|-----------7--|

Verse
Chorus
Verse
Chorus
Outro

===============================================================================
Tap to rate this tab
# A B C D E F G H I J K L M N O P Q R S T U V W X Y Z