Guitaretab - guitar tabs
Song name
# A B C D E F G H I J K L M N O P Q R S T U V W X Y Z

Bomb The Music Industry - Even Winning Feels Bad tab

Great song, follow for changes, pretty consistent throughout. Order is a little tricky, 
so I labeled each part separately.

Intro
G, Bmin, Emin, G, Bmin, Emin, C, G, Bmin, Emin, C, Amin, D, C, B, A

Melody
G, Bmin, Emin

Verse
G, Bmin, Emin, G, Bmin, Emin, C, G, Bmin, Emin, C

Pre-chorus
Amin, D, Bmin, Emin, C, D, G

Chorus
G, Bmin, C, G, C, DCBA, G, Bmin, C, G, C, D

Melody
G, Bmin, Emin

Verse
G, Bmin, Emin, G, Bmin, Emin, C, G, Bmin, Emin, C

Prechorus
Amin, D, Bmin, Emin, C, D, G

Chorus
G, Bmin, C, G, C, DCBA, G, Bmin, C, G, C, D

Bridge 2
Amin, D, B7, Emin, F, G

Solo-
[ Tab from: http://www.guitaretab.com/b/bomb-the-music-industry/91821.html ]
Part 1: (2x)
E----------------------------------------------------------------------------------------------------------------|
B----------------------------------------------------------------------------------------------------------------|
G----------------------------------------------------------------------------------------------------------------|
D----5--4---------------------------2--2 --2----2----------------------------------------------------------------|
A------------2------2--2--2----------------------------5-----3----2--------2---23-----3-------------------------|
E----------------5-------------5---------------------------------------------------------------------3---5----3--|

Part 2: (2x)

E---------------------------------------------------------------------|
B---------------------------------------------------------------------|
G-----2----------------------4-4--4-4---2-----------------------------|
D5----4---2--4--42--------------------5---4---5--5------------------|
A---------------------------------------------------------------------|
E---------------------------------------------------------------------|

End:
E---------------------------------------------------------------------------------------------|
B---------------------------------------------------------------------------------------------|
G-----2----------------------4-4--4-4---2-----------------2--------------------2---4---5---4--|
D5----4---2--4--42-----------------------5---4---5--5---------5-----4--2---4--5-------------|
A---------------------------------------------------------------------------------------------|
E---------------------------------------------------------------------------------------------|


Chorus
G, Bmin, C, G, C, DCBA, G, Bmin, C, G, C, D

Melody
G, Bmin, Emin
Related for Even Winning Feels Bad tab