Guitaretab - guitar tabs
Song name
# A B C D E F G H I J K L M N O P Q R S T U V W X Y Z

Bombardier - Glasnik Smrti tab

BOMBARDER - GLASNIK SMRTI


Riff 1:

E------------------------------------|
H------------------------------------|
G------------------------------------|
D-------------2------------2---------|
A---22--2-3----2-2---2-3---3-2-----|
E---00----------00-----------------|
    . .          . .

Riff 1b:

E------------------------------------|
H------------------------------------|
G------------2-----------2-----------|
D--------2-3---------2-3---3-2-------|
A---22--------2-2------------------|
E---00---------00------------------|
    . .         . .

Riff 2:

E------------------------------------|
H------------------------------------|
G------------------------------------|
D-----------------------------977--|
A-----------------------------755--|
E---0-000-000-000-000-000-000--------|
    . ... ... ... ... ... ...

Riff 3:
[ Tab from: http://www.guitaretab.com/b/bombardier/53055.html ]
E------------------------------------|
H------------------------------------|
G------------------------------------|
D--------9--7--5--4--5--4------------|
A--------7--5--3--2--3--2------------|
E---0-0------------------------------|
    . .

Riff 4:

E-----------------------------------------|
H-----------------------------------------|
G-----------------------------------------|
D-------------------------------------2---|
A---------------------------------2-3---3-|
E---0000-0000-0000-0000-0000-0000---------|
    .... .... .... .... .... ....

TEKST:

U svitaj zore pojavi se cudan lik,
Sav u krvi, sa sjekirom u ruci,
Zadah smrti polako se siri,
Osjecam da kraj polako dolazi.

Pobjeci nemam kud,
Njegova zrtva postajem.
Glasnik smrti po mene dolazi,
GLASNIK SMRTI, GLASNIK SMRTI!!!


Suport Serbian metal scene: http://www.serbian-metal.org/
Related for Glasnik Smrti tab