Song name
# A B C D E F G H I J K L M N O P Q R S T U V W X Y Z

Bombardier - Istina tab

BOMBARDER - ISTINA
Album: LEDENA KRV 2003.


Intro:
E|------------------------------------|
H|------------------------------------|
G|------------------------------------|
D|---2-----------2--------------------|
A|---2-----------2--------------------|
E|---0-----------0--------------------|

Riff 1:
E|------------------------------------|
H|------------------------------------|
G|------------------------------------|
D|------------------------------------|
A|------------------------------------|
E|---00-33-22-11--00-11-22-33---------|
     .. .. .. ..  .. .. .. ..       

Riff 2:
E|------------------------------------|
H|------------------------------------|
G|------------------------------------|
D|------------------------------------|
A|---2-2---5-5---4-4---3-3------------|
E|---0-0---3-3---2-2---1-1------------|

Outro:
E|------------------------------------|
H|------------------------------------|
G|------------------------------------|
D|---2-----------2-----------2--------|
A|---2-----------2-----------2--------|
E|---0-----------0-----------0--------|



Ne znam tacno koliko puta se ponavljaju rifovi...MA KO I' JEBE!!!


Suport Serbian metal scene: http://www.serbian-metal.org/
Tap to rate this tab
# A B C D E F G H I J K L M N O P Q R S T U V W X Y Z