Song name
# A B C D E F G H I J K L M N O P Q R S T U V W X Y Z

Bombay Bicycle Club - Open House tab

-------------------------------------------------------------------------------
			     Open House - Bombay Bicycle Club
-------------------------------------------------------------------------------
Tabbed by:Paul Finnigan
Email:indiekidda@hotmail.co.uk

Tuning:EADGBe

Riff I (Intro)

        D Played over the top
e|--------------------------------------------------------------------------|
B|--------------------------------------------------------------------------|
G|-11-11-9-9-11-4-6---------------------------------------------------------|
D|-0--0--0-0-0--0-0---------------------------------------------------------|
A|--------------------------------------------------------------------------|
E|--------------------------------------------------------------------------|

Riff II ("So you think you've had a walk in the park")

   G
e|-3-----------------------------------------------------------------------|
B|-3-----------------------------------------------------------------------|
G|-4-----------------------------------------------------------------------|
D|-5-----------------------------------------------------------------------|
A|-5-----------------------------------------------------------------------|
E|-3-----------------------------------------------------------------------|

Riff III ("What's the name you tried to find")

A,G,Em Played over the top.

e|--------------------------------------------------------------------------|
B|-8-10-12-14---------------------------------------------------------------|
G|--------------------------------------------------------------------------|
D|--------------------------------------------------------------------------|
A|--------------------------------------------------------------------------|
E|--------------------------------------------------------------------------|

Riff IV (Middle section, quiet part).

e|---7----------------------------------------------------------------------|
B|---7----------------------------------------------------------------------|
G|-7-7-7--------------------------------------------------------------------|
D|-7-7-7--------------------------------------------------------------------|
A|-5-5-5--------------------------------------------------------------------|
E|--------------------------------------------------------------------------|

Riff I fades back in.
Riff II
Riff I

| /  slide up
| \  slide down
| h  hammer-on
| p  pull-off
| ~  vibrato
| +  harmonic
| x  Mute note
===============================================================================
Tap to rate this tab
# A B C D E F G H I J K L M N O P Q R S T U V W X Y Z