Guitaretab - guitar tabs
Song name
# A B C D E F G H I J K L M N O P Q R S T U V W X Y Z

Bombay Bicycle Club - Sixteen tab

-----------------------------------------------------------------------------
			     Sixteen  Ben Kenney
-----------------------------------------------------------------------------
Tabbed by: Niscimble
Email: peteypablo2131@yahoo.com

This song is quite literally the same four riffs played over and over throughout the 
with an echo effect.

Tuning: Standard
[ Tab from: http://www.guitaretab.com/b/bombay-bicycle-club/163526.html ]
e|-------------------3---------|
B|-----5-------------------3---|
G|----2------4-----5-----------|
D|----------2------------0-----|
A|--4------------3-------------|
E|--------4------------3-------|


| /  slide up
| \  slide down
| h  hammer-on
| p  pull-off
| ~  vibrato
| +  harmonic
| x  Mute note
=============================================================================
Related for Sixteen tab