Song name
# A B C D E F G H I J K L M N O P Q R S T U V W X Y Z

Bombay Bicycle Club - Always Like This tab

About time this was worked out. sounds right, For any comments, questions or 
suggestions, just post a comment or silly_timmy@hotmail.co.uk


Listen to figure out timing
Main Riff
|---------------------------------------|
|---------------------------------------|
|----------10---------------------------|
|----------------------11-13~-----------|
|---------------11-13-------------------|
|--9---9--------------------------------|

|---------------------------------------|
|---------------------------------------|
|---------------------------------------|
|-----------15----11p9------------------|
|-13--13-----------------7s11~----------|
|---------------------------------------|
Tap to rate this tab
 
# A B C D E F G H I J K L M N O P Q R S T U V W X Y Z