Song name
# A B C D E F G H I J K L M N O P Q R S T U V W X Y Z

Bombay Bicycle Club - Cancel On Me tab

-------------------------------------------------------------------------------
			     Cancel on Me - Bombay Bicycle Club
-------------------------------------------------------------------------------
Tabbed by: Lewis
Email: lewisrileyljr@hotmail.co.uk

this is the verse and chorus for the song any help on this would be greatly
appreciated, we need more bbc tabs up here!

Tuning: E A D G B e

intro/verse

e|-x- x---x----x----x--------------------------------------------------------------|
B|-x- x---x----x----7--------------------------------------------------------------|
G|-x- 13--x----x----8--------------------------------------------------------------|
D|-6- 11--6---13----9--------------------------------------------------------------|
A|-7- 9---7---11----9--------------------------------------------------------------|
E|-0- x---0---9-----7--------------------------------------------------------------|

chorus

E C#m B A
Tap to rate this tab
# A B C D E F G H I J K L M N O P Q R S T U V W X Y Z