Song name
# A B C D E F G H I J K L M N O P Q R S T U V W X Y Z

Bombay Bicycle Club - Autumn drum

-------------------------------------------------------------------------------
			     Autumn - Bombay Bicycle Club
-------------------------------------------------------------------------------

Tabbed By : nick kelly

key:
R = ride
T = rack tom
B = bass drum
S = snare
C = crash
F = close hi-hat with your foot

intro:
  1 e + a 2 e + a 3 e + a 4 e + a
R|0-------0-------0-------0-------|
T|--------------------------------|
B|0-------0-------0-------0-------|x3
S|0-------0------------0-------0--|

then play this fill
  1 e + a 2 e + a 3 e + a 4 e + a
R|0-------0-------0-------0-------|
T|----------------------------0-0-|x1
B|0-------0-------0-------0-------| play crash on first beat of next bar
S|0-------0-----------0-0---------|

  1 e + a 2 e + a 3 e + a 4 e + a
C|0-------------------------------|
R|--------0-------0-------0-------|
T|--------------------------------|X7
B|0-------0-------0-------0-------|
S|0-------0------------0-------0--|

  1 e + a 2 e + a 3 e + a 4 e + a
R|0-------0-------0-------0-------|
T|----------------------------0---|x1
B|0-------0-------0-------0-------| 
S|0-------0-----------0-----------|

  1 e + a 2 e + a 3 e + a 4 e + a
C|0-------------------------------|
R|--------0-------0-------0-------|
T|--------------------------------|x7
B|0-------0-------0-------0-------|
S|0-------0------------0-------0--|

  1 e + a 2 e + a 3 e + a 4 e + a
R|0-------0-------0-------0-------|
T|----------------------------0-0-|x1
B|0-------0-------0-------0-------| 
S|0-------0-----------0-0---------|

  1 e + a 2 e + a 3 e + a 4 e + a
C|0-------------------------------|
R|--------0-------0-------0-------|
T|--------------------------------|x7
B|0-------0-------0-------0-------|
S|0-------0------------0-------0--|

 1 e + a 2 e + a 3 e + a 4 e + a
C|0-------------------------------|
R|--------0-------0-------0-------|
T|-----------------------------0--|x1
B|0-------0-------0-------0-------|
S|0-------0------------0----------|

verse:
                  and everytime ..
  1 e + a 2 e + a 3 e + a 4 e + a
F|--------0---------------0-------|
C|0-------------------------------|
R|--------------------------------|    
T|--------------------------------|x7  (repeat without crash)
B|0-------0-------0-------0-------|
S|--------------------------------|

fill:
  1 e + a 2 e + a 3 e + a 4 e + a
F|--------0---------------0-------|
C|----------------0---------------|
R|----------------------------0-0-|
T|--------------------------------|x1
B|0-------0-------0-------0-------|
S|--------------------0-0---------|


chorus:

  1 e + a 2 e + a 3 e + a 4 e + a
C|0-------------------------------|
R|--------0-------0-------0-------|
T|--------------------------------|
B|0-------0-------0-------0-------|x16 (Play crash on first beat of every
S|0-------0------------0-------0--|      other 3 bars)


intro again
---
Bridge
---
verse
---
chorus
---
intro again
----



first drum tab ever so dont go crazy on me
Tap to rate this tab
 
# A B C D E F G H I J K L M N O P Q R S T U V W X Y Z