Song name
# A B C D E F G H I J K L M N O P Q R S T U V W X Y Z

Bombay Bicycle Club - Curl Up Like A Dead Leaf And Go Where The Wind Blows tab

----------------------------------------------------------------------------
 Bombay Bicycle Club - Curl Up Like A Dead Leaf And Go Where The Wind Blows
----------------------------------------------------------------------------

Tabbed by: PropaDerbyLad
Email: rabid_monkey28@hotmail.com       

Email me if you have any questions or owt... :)

This is my first tab, so dont be TOO harsh...but if you can add to it 
or ya think it's wrong or summat needs changing, just give us a bell... :)

Tuning: Standard (EADGBe)

Intro:

Main riff (clean guitar):

e|--------7----------------------|
B|-7-8-10--10--10-8-7--7-5-3-3---|
G|-------------------------------|
D|-------------------------------|
A|-------------------------------|
E|-------------------------------|

Verse:

Guitar 1 (clean guitar):
(Lead part between Main riff)

e|------------------------------|---------------------------|
B|------------------------------|---------------------------|
G|------------------------------|---------------------------| * = Tremolo
D|-4*-4*b-----x3---4*-4*b-2*----|-4*--7*---12*--11*-14*-4*--|     picking
A|---------2*---------------2*--|---------------------------|
E|------------------------------|---------------------------|

Guitar 2 (clean guitar): 
(Rhythm part between Main riff)

e|--------------------------------|--------------------------------|
B|--------------------------------|--------------------------------|
G|--------------------------------|--------------------------------|
D|-7-------14------7-------14-----|-9------12------9-------12------|
A|-9--x12--14-x4-- 9--x12--14--x4-|-9-x12--12--x4--9--x12--12--x4--|
E|-10------12------10------12-----|-7------10------7-------10------|

Variation of Main riff:

e|--------7-------------------------|--------7----7--7--7---------|
B|-7-8-10--10---10-8-7---7-5-3--x7--|-7-8-10--10---10-10-10-8-10--|
G|----------------------------------|-----------------------------|
D|----------------------------------|-----------------------------|
A|----------------------------------|-----------------------------|
E|----------------------------------|-----------------------------|

Break:

Loud bit (overdriven guitar):

e|----------------------------------|--------------------------------------|
B|----------------------------------|--------------------------------------|
G|----------------------------------|-12---------------12------------------|
D|-12-------14------12-------14-----|-12--x12--12------12--x12--12------9--|
A|-12--x12--14--x4--12--x12--14--x4-|-10-------12--x4--10-------12--x4--9--|
E|-10-------12------10-------12-----|----------10---------------10------7--|

Quiet bit:

Bass guitar:

G|--------------------|---------------------|----2-2--2----2-2-| 
D|--------------------|---------------------|------------------| Then plays
A|-----9-9--9----9-9--|-----9-9--9----9-9---|------------------|1st one again
E|-7-7--7--7--7-7-7---|-5-5--5--5--5-5-5----|-3-3-3--3--3-3-3--|

Guitar 1 (clean guitar):

e|------------------------------|---------------------------|
B|------------------------------|---------------------------|
G|------------------------------|---------------------------|
D|-4*-4*b-----x3---4*-4*b-2-----|-4*--7*---12*--11*-14*-4*--|
A|---------2-----------------2--|---------------------------|
E|------------------------------|---------------------------|

Guitar 2 (clean guitar): plays the Main riff whilst Guitar 1 plays this:

e|---------------------------|
B|---------------------------|
G|---------------------------|
D|4*--7*----12*--11*-14*-4*--|
A|---------------------------|
E|---------------------------|

Outro:

Guitar 1 (clean guitar):
(Begins shortly after break whilst Main riff is being played)

e|--------7-------------------|--------7-----------------|
B|-7-8-10--10--10-8-7--7--x4--|-7-8-10--10---8-7--7-5-3--|
G|----------------------------|--------------------------|
D|----------------------------|--------------------------|
A|----------------------------|--------------------------|
E|----------------------------|--------------------------|

Guitar 2 (clean guitar):
(Played continously from break til end)

e|--------7----------------------|
B|-7-8-10--10--10-8-7--7-5-3-3---|
G|-------------------------------|
D|-------------------------------|
A|-------------------------------|
E|-------------------------------|

That's pretty much it tbh, not great, but will do for now...enjoy :)

| /  slide up
| \  slide down
| h  hammer-on
| p  pull-off
| ~  vibrato
| +  harmonic
| x  Mute note
=============================================================================
Tap to rate this tab
# A B C D E F G H I J K L M N O P Q R S T U V W X Y Z