Song name
# A B C D E F G H I J K L M N O P Q R S T U V W X Y Z

Bombay Bicycle Club - Ghost tab

BOMBAY BICYCLE CLUB - Ghost
Tab by liam
L1am_163@yahoo.co.uk

Its not quite right but its a basic idea of how I'd play it....



INTRO+VERSE?
 Gtr 1
|----------------------------------|
|----------------------------------|
|----------------------------------|
|---/9--9-7--7---------------------|
|--------------9--9--7-------------| 
|-------------------9--------------|
|                     Let ring.....|
|Gtr 2                             |
|----------------------------------|
|----------------------------------|
|-----6-6--66-6--6-6--66-6--66-6---|
|----7-7-7---7-7--7-7---7-7---7-7--|
|----------------------------------|
|----------------------------------|


then to bridge?
|----------------------|
|--------------------7-|
|----------------6-9---|
|---/9--9-7--7-9-------|
|----------------------|
|----------------------|


then maybe?

|------------------------------------------------------|
|------------------------------------------------------|
|-------6-------6-------6-------6-------------99999966-|
|-9---79--9---79--9---79--9---79--9--77777777-99999977-|
|----9-------9-------9-------9-------99999999----------|
|------------------------------------------------------|


Tap to rate this tab
 
# A B C D E F G H I J K L M N O P Q R S T U V W X Y Z