Song name
# A B C D E F G H I J K L M N O P Q R S T U V W X Y Z

Bombay Bicycle Club - Cancel On Me tab

Cancel on Me Solo   2:38

Probably not quite right but its close to it :)


e|---------------------------------------------------------------------------|
B|---------12--12-12-----------12--12-12-12b13----------12b13----------------|
G|-11h13p11------------11h13p11---------------13--13-13-------13-13p11-11h13-|
D|---------------------------------------------------------------------------|
A|---------------------------------------------------------------------------|
E|---------------------------------------------------------------------------|

e|---------------------------------------------------------------------------|
B|---------12--12-12-----------12--12-12-14b15----------14b15----------------|
G|-11h13p11------------11h13p11---------------13--13-13-------13-13p11-11h13-|
D|---------------------------------------------------------------------------|
A|---------------------------------------------------------------------------|
E|---------------------------------------------------------------------------|

e|---------------------------------------------------------------------------|
B|---------12--12-12-----------12--12-12-12b13----------12b13----------------|
G|-11h13p11------------11h13p11---------------13--13-13-------13-13p11-11h13-|
D|---------------------------------------------------------------------------|
A|---------------------------------------------------------------------------|
E|---------------------------------------------------------------------------|

e|---------------------------------------------------------------------------|
B|---------12--12-12-----------12--12-12-14b15----------14b15----------------|
G|-11h13p11------------11h13p11---------------13--13-13-------13-13p11-11\9--|
D|---------------------------------------------------------------------------|
A|---------------------------------------------------------------------------|
E|---------------------------------------------------------------------------|


L1am_163@yahoo.co.uk
Tap to rate this tab
# A B C D E F G H I J K L M N O P Q R S T U V W X Y Z